Cifra Club

Aprenda

O Exército de Um Homem Só I

Engenheiros do Hawaii

Tablatura: Principal (guitarra)
tono: E
Solo inicial 8x:
E|----------------------------------|
B|--0-4-5-0-5-7-0-7-9-0-5-7-0-4-5-7-|
G|----------------------------------|
D|----------------------------------|
A|----------------------------------|
E|----------------------------------|

       E  ( Riff 1)
Não importa se só tocam
    A  (Riff 2)
O primeiro acorde da canção
   B   (Riff 3)
A gente escreve o resto
          E (Riff 1)
Em linhas tortas
    B/D#  (Riff 3)
Nas portas da percepção
    E   (Riff 1)
Em paredes de banheiro
      A  (Riff 2)
Nas folhas que o outono leva ao chão
      B   (Riff 3)
Em livros de história
                         E    (Riff 1)     B/D#  (Riff 3)
Seremos a memória dos dias que virão
                          E A B E (Riff 4) 3x
(se é que eles virão)

      E  (Riff 1)
Não importa se só tocam
     A  (Riff 2)
O primeiro verso da canção
     B   (Riff 3 )
A gente escreve o resto
          E   (Riff 1)
Sem muita pressa
      B/D#    (Riff 3)
Com muita precisão
       E    (Riff 1)
Nos interessa o que não foi impresso
     A   (Riff 2)
E continua sendo escrito à mão
   B     (Riff 3)
Escrito à luz de velas
 E   (Riff 1)       B/D#   (Riff 3)
Quase na escuridão
                E    (Riff 5)
Longe da multidão

REFRÃO (RIFF 6)

    B              F#m
Somos um exército
    A                  E
O exército de um homem só)
    B          F#m        A         E
No difícil exercício de viver em paz
    B          F#m
Somos um exército
    A                E
O exército de um homem só
     B
Sem bandeiras
     B
Sem fronteiras
    B
Pra defender
    B       E       (Solo inicial 4x)
Pra defender

E|----------------------------------|
B|--0-4-5-0-5-7-0-7-9-0-5-7-0-4-5-7-|
G|----------------------------------|
D|----------------------------------|
A|----------------------------------|
E|----------------------------------|

     E   (Riff 1)
Não importa se só tocam
    A   (Riff 2)
O primeiro acorde da canção
    B     (Riff 3)
A gente escreve o resto
            E   (Riff 1)
E o resto é resto
     B/D#    (Riff 3)
É falsificação
      E    (Riff 1)
Sangue falso, bang-bang italiano
      A     (Riff 2)
Suingue falso, turista americano
   B    (Riff 3)
Livres dessa estória
                       E   (Riff 1)        B/D#   (Riff 3)
A nossa trajetória não precisa explicação
          E   (Riff 5)
(E não tem explicação)

REFRÃO (RIFF 6)

    B           F#m
Somos um exército
    A                 E
O exército de um homem só
    B         F#m      A              E
No difícil exercício de viver em paz
    B               F#m
Somos um exército
    A            E
O exército de um homem só
    B
Sem bandeiras
    B
Sem fronteiras
    B
Para defender
    B      E
Pra defender


E|------7----------------------|
B|--0-5---0-5-7-0-7-9-0-9-7-5--|
G|-----------------------------|
D|-----------------------------|
A|-----------------------------|
E|-----------------------------|

E|------7----------------------|
B|--0-5---0-5-7-0-7-9-0-9-7-5--|
G|-----------------------------|
D|-----------------------------|
A|-----------------------------|
E|-----------------------------|


Não interessa o que o bom senso diz
Não interessa o que diz o rei
Se no jogo não há juiz
Não há jogada fora da lei

Não interessa o que diz o ditado
Não interessa o que o estado diz
Nós falamos outra língua
Moramos em outro país

SOLO 1 -
E|------------4---|------4---4-7-4-|---4-7-4-----------------|
B|------5---5---5-|-5-5----5-------|-5-------5-------5-5-\---|
G|--4-4---4-------|----------------|-----------4-4-4---------|
D|----------------|----------------|-------------------------|
A|----------------|----------------|-------------------------|
E|----------------|----------------|-------------------------|

REFRÃO (RIFF 6)

    B          F#m
Somos um exército
    A                  E
O exército de um homem só
    B        F#m      A       E
No difícil exercício de viver em paz
    B       F#m
Nesse exército
    A       E
O exército de um homem só
    B
Todos sabem
    B
Que tanto faz
    B
Ser culpado
    B
Ou ser capaz
    B     E
Tanto faz...

Solos finais:
(Comece lento e depois dobre a velocidade)
E|----------------------------------|
B|--0-4-5-0-5-7-0-7-9-0-5-7-0-4-5-7-|
G|----------------------------------| 4x
D|----------------------------------|
A|----------------------------------|
E|----------------------------------|

E|-----------------------|
B|--0-4-5-0-5-7-0-7-9-7--|
G|-----------------------|  6x
D|-----------------------|
A|-----------------------|
E|-----------------------|

E|--------------|--------------|--------------|-----------|
B|--0-4-5-0-5-7-|--0-4-5-0-5-7-|--0-4-5-0-5-7-|--0-4-5~~--|
G|--------------|--------------|--------------|-----------|
D|--------------|--------------|--------------|-----------|
A|--------------|--------------|--------------|-----------|
E|--------------|--------------|--------------|-----------|

SOLO FINAL
(Da a palhetada fazendo o slide, e fica fazendo o TAPPING)

T=TAPPING
       T      T      T
E|-4/7-12-4/7-12-4/7-12-|
B|----------------------|
G|----------------------|
D|----------------------|
A|----------------------|
E|----------------------|
       T    T    T    T
E|-4/5-12-4-12-2-12-0-12-|
B|-----------------------|
G|-----------------------|
D|-----------------------|
A|-----------------------|
E|-----------------------|

E|---4-5-6-7--|
B|------------|
G|------------|
D|------------|
A|------------|
E|------------|

==========RIFF'S==========

Riff 1:

E|-------0-----|
B|------0------|
G|----1--------|
D|--2----------|
A|-------------|
E|-------------|

Riff 2:

E|--------0----|
B|--------2----|
G|-----2-------|
D|---2---------|
A|-------------|
E|-------------|

Riff 3:

E|----------2--|
B|-------4-----|
G|----4--------|
D|--4----------|
A|-------------|
E|-------------|

Riff 4:

E|--------7----|
B|------5------|
G|----3--------|
D|-------------|
A|-------------|
E|-0-----------|

Riff 5:

E|----0--|
B|----0--|
G|---1---|
D|--2----|
A|-------|
E|-------|

Riff 6:

       B    F#m   A     E                B
E|-----------------------------------------|
B|---------------2-------------------------|
G|--4------------2-----2------------------9|
D|--4-----4------2-----2---------------9--9|
A|--2-----4------------2---------------9--7|
E|--------2-----------------4-5-4-5-6 -7---|
Composição de Augusto Licks / Humberto Gessinger
Colaboración y revision:
820 reproducciones
    • ½ Tono
    • A
    • Bb
    • B
    • C
    • Db
    • D
    • Eb
    • E
    • F
    • F#
    • G
    • Ab
  • Adicionar à lista

    0 comentarios

    Ver todos os comentários

    ¿Conseguiste tocar?

    25 Tocaram 1 Ainda não

    Grave um vídeo tocando O Exército de Um Homem Só I e nos envie!

    00:00 / 00:00
    outros vídeos desta música
    repetir qualidade Automático
    Outros vídeos desta música
    00:00 / 00:00
    Automático
    OK