Cifra Club

Era Um Garoto Que Como Eu Amava Os Beatles e Os Roling Stones

Engenheiros do Hawaii

Tab de bajo: Versão 2
Versão do disco o papa é pop.

Introdução 1x guitarra sozinha depois quando o solo inicial é repetido o baixo faz o seguinte:

G|------------------|
D|------------------|
A|------------------|
E|--2--2/9--7--7/9--|

Era um garoto que como eu Amava os Beatles e os Rolling Stones...

G|------------|
D|------------| 2x
A|----4-2-4---|
E|-2----------|

Não era belo mas mesmo assim...

G|--------------------------------------------|
D|--------------------------------------------|
A|------------4--4-4--4-2--2-2--2-4--4-4-2----|
E|--2--2-2--2------------------------------2--|

Cantava "Help" e "Ticket to Ride"...

G|-------------------------------------------------|
D|-------------------------------------------------|
A|------------4--4-4--4-2--2-2--2-4--4-4--12/4-----|
E|--2--2-2--2--------------------------------------|

Cantava "viva a liberdade" mas uma carta...

G|------------------------------------------------------------------|
D|------------------------------------------------------------------|
A|-----------------2-2-2-2-2-2-2-2-4-4-4-4-2-2-2-2-----------4-3-2--|
E|-2-2-2-2-2-2-2-2---------------------------------2-2-2-2-2--------|

Da sua guitarra o separou, fora chamado na América

G|--------------------------------------------------------------|
D|--------------------------------------------------------------|
A|-----------------2-2-2-2-2-2-2--2-1-0--------------4-4-4-4-4--|
E|-2-2-2-2-2-2-2-2----------------------4--4-4-4-4-4------------|

Stop com Rolling Stones!

G|------------|
D|------------|
A|---0-2-3-4--|
E|-2----------|

Stop com Beatles's song!

G|------------|
D|------------|
A|---0-2-3-4--|
E|-2----------|

Mandado foi ao Vietnã, lutar com vietcongs.

G|-------------------------------------------------|
D|-------------------------------------------------|
A|-2-1------2-1-2-3-4-4-4-4-4-4-4-4-4-4-4-4-4-4-4--|
E|-----4-2-----------------------------------------|

Tcha Tcha Tcha...

G|----------------------------------------------------------------------------|
D|---------------------------4--------4--------6--------6---------------------|
A|--------4--------4--2--2-2---2--2-2---4--4-4---4--4-4-------------4---4-----|
E|-2--2-2---2--2-2-----------------------------------------2--2-2-2---2---2---|

Era um garoto que como eu Amava os Beatles e os Rolling Stones.

G|--------------------------------------------|
D|--------------------------------------------|
A|------------4--4-4--4-2--2-2--2-4--4-4-2----|
E|--2--2-2--2------------------------------2--|

Girava o mundo, mais acabou fazendo a guerra do Vietnã

G|-------------------------------------------------|
D|-------------------------------------------------|
A|------------4--4-4--4-2--2-2--2-4--4-4--12/4-----|
E|--2--2-2--2--------------------------------------|

Cabelos longos não usa mais, não toca sua guitarra...

G|--------------------------------------------|
D|--------------------------------------------|
A|------------4--4-4--4-2--2-2--2-4--4-4-2----|
E|--2--2-2--2------------------------------2--|

Não tem amigos, não vê garotas, só gente morta caindo ao chão.

G|------------------------------------------------------------------|
D|------------------------------------------------------------------|
A|-----------------2-2-2-2-2-2-2-2-4-4-4-4-2-2-2-2-----------4-3-2--|
E|-2-2-2-2-2-2-2-2---------------------------------2-2-2-2-2--------|

Ao seu país não voltará...

G|--------------------------------------------------------------|
D|--------------------------------------------------------------|
A|-----------------2-2-2-2-2-2-2--2-1-0--------------4-4-4-4-4--|
E|-2-2-2-2-2-2-2-2----------------------4--4-4-4-4-4------------|

Stop com Rolling Stones!

G|------------|
D|------------|
A|---0-2-3-4--|
E|-2----------|

Stop com Beatles's song!

G|------------|
D|------------|
A|---0-2-3-4--|
E|-2----------|

No peito um coração não há...

G|------------------------------------------------------|
D|------------------------------------------------------|
A|-2-1------2-1-2-3-4-4-4-4-4-4-4/16-16-16-16-16-16-16--|
E|-----4-2----------------------------------------------|

Riff junto com a guitarra:

G|---------3----3-------|
D|---4---4----4--4------|
A|-4---4-----------4~~--|
E|----------------------|

Tcha Tcha Tcha...

G|----------------------------------------------------------------------------|
D|---------------------------4--------4--------6--------6---------------------| 2x
A|--------4--------4--2--2-2---2--2-2---4--4-4---4--4-4-------------4---4-----|
E|-2--2-2---2--2-2-----------------------------------------2--2-2-2---2---2---|

Acompanhamento do baixo no solo:

G|----------------------------------------|
D|----------------------------------------| 4x
A|--------------------4--4-4-4--4--4-4-4--|
E|-2--2-2-2--2--2-2-2---------------------|

G|---------------------------------------------------------------------|
D|---------------------------------------------------------------------|
A|-4----4-----4------------7--7---------------------9-8-6--------------|
E|--2-2---2-2---2-4-5-7-9-------9---9-6--6-6-6-7-9-------9-7-6-4-2-----|

G|-------|
D|-------|3x
A|-------|
E|--2~~--|

Última parte do solo, guitarra e baixo juntos:

G|--------------------------------|
D|--4-4-6-4-3-----4-3-------------|
A|------------6-4----6-4----------|
E|-----------------------7-6-4-2--|

Tcha Tcha Tcha...

G|----------------------------------------------------------------------------|
D|---------------------------4--------4--------6--------6---------------------| 2x
A|--------4--------4--2--2-2---2--2-2---4--4-4---4--4-4-------------4---4-----|
E|-2--2-2---2--2-2-----------------------------------------2--2-2-2---2---2---|

Final:

G|-----------------------------------------|
D|--------------4-4-4-4--4-4---------------|
A|-----------------------------------------|
E|-2-2-2-2--2-2--------------2-2-2-2--2-2--|

Pra ficar mais fácil, escutem a música...
Compositor não encontrado.
Colaboración y revisión:
  • Lucas Frassetto
51 vistas

0 comentarios

Ver todos los comentarios
00:00 / 00:00
Outros vídeos desta música
Repetir Calidad Automático
Outros vídeos desta música
00:00 / 00:00
Automático
OK