Cifra Club

Petrified Life And The Twice Told Joke

Gym Class Heroes

Tab de bajo: Principal
Tabbed By : Rather_dashing
e-mail: *

Tuning:
Intro and parts of verse
G|---------------------------|
D|---------------------------|
A|-------5-5-5-5-------------|
E|--5-5-5---------3-3-1-1-0--|
parts of verse
G|----------------------------------------------------------------------|
D|-------7--5-------------------7--5------------------------------------|
A|-------------7--5-7-5-7--5-5------7--5-3-5-3----5-5------3-3-----2-2--|
E|----5----------------------------------------3-3------1-1-----0-0-----|
chorus
G|-----------------------------------|
D|-----------------------------------|
A|-----------5----5-5----------------|
E|---5----5-5-------------3---1---0--|

listen to the song for the rythym
Composición de Matthew McGinley
10 vistas

0 comentarios

Ver todos los comentarios

¿Lograste tocar?

0 Tocaron 0 Aún no

¡Graba un video tocando Petrified Life And The Twice Told Joke y envíanoslo!

00:00 / 00:00
Outros vídeos desta música
Repetir Calidad Automático
Outros vídeos desta música
00:00 / 00:00
Automático
OK