Cifra Club

Petrified Life And The Twice Told Joke

Gym Class Heroes

Cifrado: Principal (guitarra y guitarra eléctrica)
tono: C
Petrified Life And The Twice TOld Joke


The begingin and chorus are spot on  but throught out the song many fills are added just 
with whats here
Also im still working on the chord progression thorughout the song and the 3rd verse

e------------8h10p8--8-----8---8/10-7/8/7-|
b-----10-----10------10----10-------------|
g---9--------9-------9/10--10--5/7--4/5/4-|
d-----------------------------------------|
a-----------------------------------------|
e-----------------------------------------|

e--------------------------------------------7h8p0-12-11-12-11-12-11-12-----------|
b----8-8h10p8-(8)---6-6h8p6-(6)---5-5h7p5-------------------------------12-15-13--|
g--7-----------7--5----------5--4---------4---------------------------------------|
d---------------------------------------------------------------------------------|
a---------------------------------------------------------------------------------|
e---------------------------------------------------------------------------------|

drums kick

e------8-------8--8/12-10/7-------------------------------------3/5-------|
b-10---10----------------------8-8h10p8-(8)---6-6h8p6-(6)---5-6-----8-6-5-|
g----9-9--9-10----5/9---7/4--7-----------7--5----------5--4---------------|
d-------------------------------------------------------------------------|
a-------------------------------------------------------------------------|
e-------------------------------------------------------------------------|

e---------8--7--5------8-8/10-7/8/7-----------------------------------------|
b----10---10-10----10-10--------------8-8h10p8-(8)---6-6h8p6-(6)--5-(hold)--|
g--9------9--9------9/10-5/7--4/5/4-7-----------7--5----------5--4----------|
d---------------------------------------------------------------------------|
a---------------------------------------------------------------------------|
e---------------------------------------------------------------------------|

Chorus:
e-----8-7-8-10-8-7-----8-7-8--8-7-------------------------------7h8p0--12h13p0------|
b--10--------------10-------------10--8-12-10-8--6-10-8-6-5-6-8---------------------|
g-----------------------------------------------------------------------------------|
d---------7(holds)----------------12(holds)------10(holds)----9(holds)--------------|
a-----------------------------------------------------------------------------------|
e-----------------------------------------------------------------------------------|

e-----8-7-8-10-8-7-----8-7-8--8-7--------------------------------5-5----------------|
b--10--------------10-------------10--8-12-10-8--6-10-8-6--5-6-8-----3-6-5----------|
g-----------------------------------------------------------------------------------|
d-----------------------------------------------------------------------------------|
a-----------------------------------------------------------------------------------|
e-----------------------------------------------------------------------------------|
00:00 / 00:00
Otros videos de esta canción
Repetir
Otros videos de esta canción
Composición de Matthew McGinley
39 exhibiciones
    • ½ Tono
    • A
    • Bb
    • B
    • C
    • Db
    • D
    • Eb
    • E
    • F
    • F#
    • G
    • Ab
  • Agregar a la lista
    00:00 / 00:00
    OK