Cifra Club

Great Balls Of Fire

Jerry Lee Lewis

Tab de bajo: Principal
G|---------|---------|---------|-0-2-4-5-|
D|---0-2-3-|-2-3-4-5-|-*-5-4-3-|---------|
A|-3-------|---------|---------|---------|
E|---------|---------|---------|---------|

G|-----0-2-|-----0-2-|---------|---------|---------|---------|---|
D|---2-----|---2-----|-----3-0-|-----3-0-|-----0-2-|-----3-0-|---|
A|-3-------|-3-------|---0-----|---0-----|---2-----|---0-----|-3-|
E|---------|---------|-1-------|-1-------|-3-------|-1-------|---|

G|---------|---------|-----0-2-|-----0-2-|---------|---------|---|
D|-----3-0-|-----3-0-|---2-----|---2-----|-----3-0-|-----3-0-|---|
A|---0-----|---0-----|-3-------|-3-------|---0-----|---0-----|---|
E|-1-------|-1-------|---------|---------|-1-------|-1-------|-3-|

G|-----0-2-|-----0-2-|---------|---------|---------|---------|---|
D|---2-----|---2-----|-----3-0-|-----3-0-|-----0-2-|-----3-0-|---|
A|-3-------|-3-------|---0-----|---0-----|---2-----|---0-----|-3-|
E|---------|---------|-1-------|-1-------|-3-------|-1-------|---|

G|-----0-2-|-----0-2-|---------|---------|---------|---------|
D|---2-----|---2-----|-----3-0-|-----3-0-|-----0-2-|-----3-0-|
A|-3-------|-3-------|---0-----|---0-----|---2-----|---0-----|
E|---------|---------|-1-------|-1-------|-3-------|-1-------|

G|-----0-2-|-----0-2-|-----0-2-|-----0-2-|---------|---------|---------|
D|---2-----|---2-----|---2-----|---2-----|-----3-0-|-----3-0-|-----0-2-|
A|-3-------|-3-------|-3-------|-3-------|---0-----|---0-----|---2-----|
E|---------|---------|---------|---------|-1-------|-1-------|-3-------|

G|-----0-2-|-----0-2-|---------|---------|-----0-2-|-----0-2-|---------|
D|---2-----|---2-----|-----3-0-|-----3-0-|---2-----|---2-----|-----3-0-|
A|-3-------|-3-------|---0-----|---0-----|-3-------|-3-------|---0-----|
E|---------|---------|-1-------|-1-------|---------|---------|-1-------|

G|---------|---|
D|-----3-0-|---|
A|---0-----|---|
E|-1-------|-3-|

G|-----0-2-|-----0-2-|---------|---------|---------|---------|---|
D|---2-----|---2-----|-----3-0-|-----3-0-|-----0-2-|-----3-0-|---|
A|-3-------|-3-------|---0-----|---0-----|---2-----|---0-----|-3-|
E|---------|---------|-1-------|-1-------|-3-------|-1-------|---|

G|-----0-2-|-----0-2-|---------|---------|---------|---------|
D|---2-----|---2-----|-----3-0-|-----3-0-|-----0-2-|-----3-0-|
A|-3-------|-3-------|---0-----|---0-----|---2-----|---0-----|
E|---------|---------|-1-------|-1-------|-3-------|-1-------|

G|-----0-2-|-----0-2-|
D|---2-----|---2-----|
A|-3-------|-3-------|
E|---------|---------|

G|-----0-2-|-----0-2-|---------|---------|---------|---------|
D|---2-----|---2-----|-----3-0-|-----3-0-|-----0-2-|-----3-0-|
A|-3-------|-3-------|---0-----|---0-----|---2-----|---0-----|
E|---------|---------|-1-------|-1-------|-3-------|-1-------|

G|-----0-2-|-----0-2-|
D|---2-----|---2-----|
A|-3-------|-3-------|
E|---------|---------|

G|-----0-2-|-----0-2-|---------|---------|---------|---------|---|
D|---2-----|---2-----|-----3-0-|-----3-0-|-----0-2-|-----3-0-|---|
A|-3-------|-3-------|---0-----|---0-----|---2-----|---0-----|---|
E|---------|---------|-1-------|-1-------|-3-------|-1-------|-3-|

G|-----0-2-|-----0-2-|---------|---------|---------|---------|---|
D|---2-----|---2-----|-----3-0-|-----3-0-|-----0-2-|-----3-0-|---|
A|-3-------|-3-------|---0-----|---0-----|---2-----|---0-----|-3-|
E|---------|---------|-1-------|-1-------|-3-------|-1-------|---|

G|---------|
D|---------|
A|-3-3-3-3-|
E|---------|

(Listen to the song while trying this because the hardest thing will be the timing, most 
the single |-3-| parts can be improvised and i was just too lazy to write all of them 
Comments/hate-mail to *)
00:00 / 00:00
Otros videos de esta canción
Repetir
Otros videos de esta canción
Composición de Jack Hammer / Otis Blackwell
126 exhibiciones
00:00 / 00:00
OK