Cifra Club

Great Balls Of Fire

Jerry Lee Lewis

Tab de bajo: Estudio
               you shake...   rattle...     too much...   man...      you...            but...
g-----------|--------------|-------------|-------------|-----------|-----------------|-----------------|
d-----------|*-------------|-----0--2----|--3----------|--3--3--4--|--5-----5--5--4--|--3--------------|
a-----0--2--|*-3-----------|--3----------|-------------|-----------|-----------------|-----------0--2--|
e--3--------|--------------|-------------|-------------|-----------|-----------------|--------3--------|

   goodness...    balls...    I laughed...               thought...                 you came...
|--------------|-----------|--------------0--0--2--0--|--------------0--0--2--0--|--------------------------|
|--------------|-----------|--------2--2--------------|--------2--2--------------|--------------------0-----|
|--3-----------|-----------|--3--3--------------------|--3--3--------------------|--------0--0--3--3-----3--|
|--------------|-----------|--------------------------|--------------------------|--1--1--------------------|

                              I changed...               this love...            goodness...
|--------------------------|--------------------------|-----------------------|---------------|
|--------------------0-----|--------------0--0--2--0--|-----------------------|---------------|
|--------0--0--3--3-----3--|--------2--2--------------|--------0--0--3--3--5--|--3------------|
|--1--1--------------------|--3--3--------------------|--1--1-----------------|---------------|

   balls...       kiss me...
|--------------|-------------------------|-------------------------|--------------0--0--2--0--|
|--------------|-------------------0-----|-------------------0-----|--------2--2--------------|
|--------------|-------0--0--3--3-----3--|-------0--0--3--3-----3--|--3--3--------------------|
|--------------|--1--1-------------------|--1--1-------------------|--------------------------|

   good                       hold me...                                         I wanna...
|--------------0--0--2--0--|--------------------------|-----------------------|--------------|
|--------2--2--------------|--------------------0-----|-----------------------|--------------|
|--3--3--------------------|--------0--0--3--3-----3--|--------0--0--3--3--5--|--------------|
|--------------------------|--1--1--------------------|--1--1-----------------|--3-----------|

                                                   got to tell...   mine mine...    twidle...
|-----------|-----------------|-----------------|----------------|---------------|--------------0--0--2--0--|
|-----------|-----------------|-----------------|----------------|---------------|--------2--2--------------|
|-----------|-----------------|-----------------|----------------|---------------|--3--3--------------------|
|--3--3--3--|--3-----3--3--3--|--3-----3--3--3--|--3-------------|--3---3---3----|--------------------------|

                              I'm real...                sure is fun                come on baby
|--------------0--0--2--0--|--------------------------|--------------------------|--------------------------|
|--------2--2--------------|--------------------0-----|--------------------0-----|--------------0--0--2--0--|
|--3--3--------------------|--------0--0--3--3-----3--|--------0--0--3--3-----3--|--------2--2--------------|
|--------------------------|--1--1--------------------|--1--1--------------------|--3--3--------------------|

                                        1_________ 2________________
   you drive...            goodness...    balls...
|-----------------------|--------------|----------|-----------|-----|
|-----------------------|--------------|---------*|-----------|-----|
|--------0--0--3--3--5--|--3-----------|---------*|--3--3--3--|--3--|
|--1--1-----------------|--------------|----------|-----------|-----|
00:00 / 00:00
Otros videos de esta canción
Repetir
Otros videos de esta canción
Composición de Jack Hammer / Otis Blackwell
Colaboración y revisión:
  • valdir júnior
23 exhibiciones
00:00 / 00:00
OK