Cifra Club

Salt Sweat Sugar

Jimmy Eat World

Tab de bajo: Principal
Tabbed by:	kye forrester *

Intro: 

G------------------------------------------------------------| 
D------------------------------------------------------------| 
A------------------------------------------------------------| 
D-4-----4-4-----4-4---0-----0-0-----0-0---4-4-----4-4-----4--| 

G---------------------------------| 
D---------------------------------| 
A-------------------------2-2-2-2-| 
D-7-7-7-7-7-7-7-7-0-0-0-0---------| 

Verse: 

G----------------------------------------------------------------| 
D----------------------------------------------------------------| 
A-------------------------------------------------2-2-2-2-2-2-2-2| 
D-4-4-4-4-4-4-4-4-4-4-4-4-4-4-4-4-0-0-0-0-0-0-0-0----------------| 

last time 

G---------------------------------------------------------------| 
D---------------------------------------------------------------| 
A-------------------------------------------------2---2---2---2-| 
D-4-4-4-4-4-4-4-4-4-4-4-4-4-4-4-4-0-0-0-0-0-0-0-0---------------| 
 
Chorus: 

G------------------------------------------------------------| 
D------------------------------------------------------------| 
A------------------------------------------------------------| 
D-4-----4-4-----4-4---0-----0-0-----0-0---4-4-----4-4-----4--| 

G---------------------------------| 
D---------------------------------| 
A-------------------------2-2-2-2-| 
D-7-7-7-7-7-7-7-7-0-0-0-0---------| 

G------------------------------------------------------------| 
D------------------------------------------------------------| 
A------------------------------------------------------------| 
D-4-----4-4-----4-4---0-----0-0-----/12---4-4-----4-4-----4--| 

G---------------------------------| 
D---------------------------------| 
A-------------------------2-2-2-2-| Switch between these two
D-7-7-7-7-7-7-7-7-0-0-0-0---------| 

Bridge: 

G----------------------------------------------------------------| 
D----------------------------------------------------------------| 
A---------------------------------0-0-0-0-0-0-0-0----------------| 
D-4-4-4-4-4-4-4-4-0-0-0-0-0-0-0-0-----------------0-0-0-0--------| 

Finish

D-4-4-| 
  
Order

Intro
Verse 
Chorus
Verse
Chorus
Bridge
Chorus
Finish

Enjoy
00:00 / 00:00
Otros videos de esta canción
Repetir
Otros videos de esta canción
Composición de Jimmy Eat World
10 vistas

0 comentarios

Ver todos los comentarios
00:00 / 00:00
OK