Cifra Club

Quien Me Ha Robado El Mes De Abril

Joaquin Sabina

Tablatura: Principal (guitarra)
tono: G
[Intro]

                            AmC/GE|--3h5p3--------x--------|--0| A-----0A-x-|
B|--3h5p3--------x--------|--1| │-----1│-x-|
G|---------3/5\3-x--------|--2| │-----0│-x-|
D|---------2/4\2-x--------|--2| │-----2│-x-|
A|---------------x-----0--|--0| │-----3│-x-|
E|---------------x-4h5----|---------3| │-x-|
                                       PM               
                             GE|--3h5p3--------x--------|--3| A-x---------------------x-|
B|--3h5p3--------x--------|--0| │-x---------------------x-|
G|---------3/5\3-x--------|--0| │-x----------0h2p0------x-|
D|---------2/4\2-x--------|--0| │-x------0h2-------4h5v-x-|
A|---------------x--------|--2| │-x--0h2----------------x-|
E|---------------x-0h2h3--|--3| │-x---------------------x-|
                 PM             PM                    PM

                             AmAm↑↓↓
E|--3h5p3--------x--------|--0--| A------0│AA--x-|
B|--3h5p3--------x--------|--0h1| │------1│││--x-|
G|---------3/5\3-x--------|--2--| │------0V││--x-|
D|---------2/4\2-x--------|--2--| │------------x-|
A|---------------x-----0--|--0--| │------------x-|
E|---------------x-4h5----|------------------x-|
                 PM                          PM

E|--3h5p3--------------------------|
B|--3h5p3--------------------------|
G|---------3/5\3--2vv-0------------|
D|---------2/4\2--------5vvvvvvvv--|
A|---------------------------------|
E|---------------------------------|
  
E|--3h5p3--------x-----------|
B|--3h5p3--------x-----------|
G|---------3/5\3-x-----------|
D|---------2/4\2-x-----------|
A|---------------x---0-2-----|
E|---------------x-----------|
                 PM                                                                 

       C     CM7/B   Am     Am7/g  D    C7b9  Bsus(2,4)#5 A7sus4
E|-------0-|----0-|----0-|----0-|----3-|----0-|----0----|-------|
B|------1--|---1--|---1--|---1--|---2--|---2--|---2-----|-----3-|
G|-----0---|--0---|--2---|--2---|--3---|--3---|--0------|----0--|
D|---------|------|------|------|-0----|------|---------|-------|
A|0h2-3----|-2----|-0----|------|------|-3----|-2-------|---0---|
E|---------|------|------|-3----|------|------|---------|-------|

Riff 1      

E|-----------|
B|-----------|
G|-----------|
D|-----0h2---|
A|-0h2-------|
E|---------0-|

Riff 2   

E|--0-----0---|
B|--1-----1---|
G|--0-----0---|
D|--2-0h2-2---|
A|--3-----3---|
E|--3-----3---|

Riff 3      

E|-2-0h2h3p2p0h2-2|
B|-3-------------3|
G|-2-------------2|
D|-0-------------0|
A|----------------|
E|----------------|

G
En la posada del fracaso
       F
Donde no hay consuelo ni ascensor
C/G
El desamparo y la humedad
            G    riff 1
comparten colchón
Em
Y cuando por la calle pasa
    F             C/G
la vida como un huracán
Bm                       Am
El hombre del traje gris
                         C/G riff 2
Saca un sucio calendario del bolsillo
Y grita

G          D              C/G riff 2
¿Quién me ha robado el mes de Abril?
G          D          C/G riff 2
¿Cómo pudo sucederme a mi?
G           D               C/G
¿Quién me ha robado el mes de Abril?
      Bm            Am
Lo guardaba en el cajón
Am/G                D riff 3
Donde guardo el corazón

G                             F
La chica de BUP casi todas las asignaturas suspendió
C/G                           G          riff1
el curso que preñada aquel chaval la dejo
Em                           F                  C/G riff 2
Y cuando en la pizarra pasa lista el profe de latín
Bm                 Am                          C/G riff 2
Lagrimas de desamor ruedan por la pagina de un block
Y en el escribe

[Refrão]

G            D              C/G riff 2
¿Quien me ha robado el mes de abril?
G      D             C/G riff 2
¿Como pudo sucederme a mi?
        G          D               C/G
¿Pero quien me ha robado el mes de abril?
      Bm            Am
Lo guardaba en el cajón
Am/G                  D
Donde guardo el corazón

[Solo] G  D  C  G  D  C

(Usa los mismos tiempos de ¿Quien me ha robado el mes de abril?)

E|------------------------------------------------------|
B|------------------------15-15--13/12-13---15--13--12--|
G|-----12-----14b--12-14--------------------------------|
D|--12----12--------------------------------------------|
A|------------------------------------------------------|
E|------------------------------------------------------|

E|---------------------------------------------------|
B|----------------------------13--13-12/13-12/15-15--|
G|-----12------14b--12--------12---------------------|
D|--12----12------------14---------------------------|
A|---------------------------------------------------|
E|---------------------------------------------------|

 G                 D             C/G 
¿Quien me ha robado el mes de abril?
      Bm            Am
Lo guardaba en el cajón
C/G                   D riff 3
Donde guardo el corazón

G
El marido de mi madre
      F
en el ultimo tren se largo
C/G                 G          riff 1
con una peluquera 20 años menor
Em
Y cuando exhiben esas risas
   F             C/G
Instamatic en París
Bm
Derrotado en un sillón
Am                           C/G riff 2
Se marchita viendo Falcón Crest
Mi vieja y piensa

G                D              C/G riff 2
¿Quien me ha robado el mes de abril?
G            D          C/G riff 2
¿Cómo pudo, sucederme a mi?
     G               D                C/G
¿Pero quien me ha robado el mes de abril?
     Bm             Am
Lo guardaba en el cajón
Am/G                 D riff3
Donde guardo el corazón

Composição de Joaquín Sabina
Colaboración y revision:
  • Gerardo Azambuya
  • Ali Oli
3.755 reproducciones
    • ½ Tono
    • A
    • Bb
    • B
    • C
    • Db
    • D
    • Eb
    • E
    • F
    • F#
    • G
    • Ab
  • Adicionar à lista

    0 comentarios

    Ver todos os comentários

    ¿Conseguiste tocar?

    0 Tocaram 0 Ainda não

    Grave um vídeo tocando Quien Me Ha Robado El Mes De Abril e nos envie!

    00:00 / 00:00
    outros vídeos desta música
    repetir qualidade Automático
    Outros vídeos desta música
    00:00 / 00:00
    Automático
    OK