Cifra Club

Aprenda

O Mundo É Tão Pequeno

Jorge e Mateus

Tablatura: Principal (guitarra)
Tom: D
(intro)  D Bm G Em A

(solo inicial)
E|--------------14-14-12-12-10-10-9--9-----------------------------------------------
B|----10---10---15-15-14-14-12-12-10-10------12-12-10-10-8-8-7-----------------------
G|-11---11-----------------------------------12-12-11-11-9-9-7-----------------------
D|-----------------------------------------------------------------------------------
A|-----------------------------------------------------------------------------------
E|-----------------------------------------------------------------------------------

E|---------------14-14-12-12-10-10-9--9----------------------------------------------
B|----10---10----15-15-14-14-12-12-10-10------------12-10-8------8-7--5--------------
G|-11---11---------------------------------------------------------------------------
D|-----------------------------------------------------------------------------------
A|-----------------------------------------------------------------------------------
E|-----------------------------------------------------------------------------------

D
Pode brincar,
eu te conheço sei jogar seu jogo
             F#m
sei que você vai se queimar

Sei que não agüenta fogo
  G
e vai quebrar a cara
        A                           D     Bm
quando me ver escapando entre seus dedos
                       Em                   G
Vou dividindo os meus segredos com outra pessoa
   Em
Hoje eu acordei gostando mais de mim
   G                A
Vou cair fora numa boa

D
Então fica assim
                              Bm
a gente se encontra outra ocasião
                         G
na festa junina festa de peão
             Em
No bar da esquina
                A
o mundo é tão pequeno afinal ô ô Ô
D                                            Bm
E graças a deus que o seu amor não me fez tão mal
                            G
e o meu coração ainda bate igual
                A                  D
e a gente se encontra em outro carnaval
                 G           A
o mundo é tão pequeno afinal
                  G
O mundo é tão pequeno afinal

(solo inicial)

D
Pode brincar,
eu te conheço sei jogar seu jogo
             F#m
sei que você vai se queimar
Sei que não agüenta fogo
  G
e vai quebrar a cara
        A                           D     Bm
quando me ver escapando entre seus dedos
                       G
Vou dividindo os meus segredos com outra pessoa

   Em
Hoje eu acordei gostando mais de mim
   G               A
Vou cair fora numa boa

D
Então fica assim
                              Bm
a gente se encontra outra ocasião
                         G
na festa junina festa de peão
             Em
No bar da esquina
                A
o mundo é tão pequeno afinal, ô ô Ô
D                                            Bm
E graças a deus que o seu amor não me fez tão mal
                            G
e o meu coração ainda bate igual
                A                  D      A
e a gente se encontra em outro carnaval
             D                                   Bm
E graças a deus que o seu amor não me fez tão mal
                            G
e o meu coração ainda bate igual
                A                  D
e a gente se encontra em outro carnaval
                 G           A
o mundo é tão pequeno afinal
                  G          Gm  D
O mundo é tão pequeno afinal
Compositor Jorge Barcelos
406 reproducciones
    • ½ Tom
    • A
    • Bb
    • B
    • C
    • Db
    • D
    • Eb
    • E
    • F
    • F#
    • G
    • Ab
  • Adicionar à lista

    0 comentarios

    Mostrar mais comentários
    00:00 / 00:00
    outros vídeos desta música
    repetir qualidade Automático
    Outros vídeos desta música
    00:00 / 00:00
    Automático
    OK