Cifra Club

Use Somebody

Kings Of Leon

Tab de bajo: Principal
Já pensou em usar uma coleção de roupas do Cifra Club? Responda as perguntas abaixo e nos ajude nessa missão! →
[Intro]

Parte 01  de 04 

G|-------------------------------------------------|
D|-------------------------------------------------|
A|-3-3-3-3--3-3-3-3--------------------------------|
E|-------------------0-0-0-0--0-0-0-0--------------|

G|-------------------------------------------------|
D|-------------------------------------------------|
A|-------------------------------------------------|
E|-1-1-1-1--1-1-1-1--1-1-1-1--1-1-1-1--------------|

Parte 02 de 04

G|------------------------------------------------|
D|------------------------------------------------|
A|-3-3-3-3--3-3-3-3-------------------------------|
E|-------------------0-0-0-0--0-0-0-0-------------|

G|------------------------------------------------|
D|------------------------------------------------|
A|------------------------------------------------|
E|-1-1-1-1--1-1-1-1--1-1-1-1--1-1-1-1/------------|

Parte 03 de 04

G|--------------------------------------------|
D|--------------------------------------------|
A|-------------------3-3-3-3--3-3-3-3---------|
E|-5-5-5-5--5-5-5-5---------------------------|

G|--------------------------------------------|
D|--------------------------------------------|
A|--------------------------------------------|
E|-1-1-1-1--1-1-1-1--1-1-1-1--1-1-1-1/--------|

Parte 04 de 04

G|--------------------------------------------|
D|--------------------------------------------|
A|-------------------3-3-3-3--3-3-3-3---------|
E|-5-5-5-5--5-5-5-5---------------------------|

G|--------------------------------------------|
D|--------------------------------------------|
A|-8\2----------------------------------------|
E|--------------------------------------------|

[Primeira Parte]

I've been roaming around...Someone like you...

Parte 01 de 04

G|--------------------------------------------|
D|--------------------------------------------|
A|-3-3-3-3--3-3-3-3---------------------------|
E|-------------------0-0-0-0--0-0-0-0---------|

G|--------------------------------------------|
D|--------------------------------------------|
A|--------------------------------------------|
E|-1-1-1-1--1-1-1-1--1-1-1-1--1-1-1-1---------|

Parte 02 de 04

G|--------------------------------------------|
D|--------------------------------------------|
A|-3-3-3-3--3-3-3-3---------------------------|
E|-------------------0-0-0-0--0-0-0-0---------|

G|--------------------------------------------|
D|--------------------------------------------|
A|--------------------------------------------|
E|-1-1-1-1--1-1-1-1--1-1-1-1--1-0-1-1/--------|

Parte 03 de 04

G|--------------------------------------------|
D|--------------------------------------------|
A|-------------------3-3-3-3--3-3-3-3---------|
E|-5-5-5-5--5-5-5-5---------------------------|

G|--------------------------------------------|
D|--------------------------------------------|
A|--------------------------------------------|
E|-1-1-1-1--1-1-1-1--1-1-1-1--1-0-1-1/--------|

Parte 04 de 04

G|--------------------------------------------|
D|--------------------------------------------|
A|-------------------3-3-3-3--3-3-3-3---------|
E|-5-5-5-5--5-5-5-5---------------------------|

G|--------------------------------------------|
D|--------------------------------------------|
A|--------------------------------------------|
E|-1-1-1-1--1-1-1-1--1-1-1-1--1-1-1-1---------|

[Refrão]

Someone like me...

Parte 01  de 04 

G|--------------------------------------------|
D|--------------------------------------------|
A|-3-3-3-3--3-3-3-3---------------------------|
E|-------------------0-0-0-0--0-0-0-0---------|

G|--------------------------------------------|
D|--------------------------------------------|
A|--------------------------------------------|
E|-1-1-1-1--1-1-1-1--1-1-1-1--1-1-1-1---------|

Parte 02 de 04

G|--------------------------------------------|
D|--------------------------------------------|
A|-3-3-3-3--3-3-3-3---------------------------|
E|-------------------0-0-0-0--0-0-0-0---------|

G|--------------------------------------------|
D|--------------------------------------------|
A|--------------------------------------------|
E|-1-1-1-1--1-1-1-1--1-1-1-1--1-1-1-1/--------|

Parte 03 de 04

G|--------------------------------------------|
D|--------------------------------------------|
A|-------------------3-3-3-3--3-3-3-3---------|
E|-5-5-5-5--5-5-5-5---------------------------|

G|--------------------------------------------|
D|--------------------------------------------|
A|--------------------------------------------|
E|-1-1-1-1--1-1-1-1--1-1-1-1--1-1-1-1/--------|

Parte 04 de 04

G|--------------------------------------------|
D|--------------------------------------------|
A|-------------------3-3-3-3--3-3-3-3---------|
E|-5-5-5-5--5-5-5-5---------------------------|

G|--------------------------------------------|
D|--------------------------------------------|
A|--------------------------------------------|
E|-1-1-1-1--1-1-1-1--1-1-1-1--1-1-3-3---------|

[Segunda Parte]

Off in the night, while you live it up...

Parte 01 de 03

G|--------------5-----------------------------|
D|------------5-------------------------------|
A|-3-3-3-3--3---------------------------------|
E|-----------------0-0-0-0--0-0-0-0-----------|

G|--------------------------------------------|
D|--------------------------------------------|
A|--------------------------------------------|
E|-1-1-1-1--1-1-1-1--1-1-1-1--1-1-1-1---------|

Parte 02 de 03

G|--------------5-----------------------------|
D|------------5-------------------------------|
A|-3-3-3-3--3---------------------------------|
E|-----------------0-0-0-0--0-0-0-0-----------|

G|--------------------------------------------|
D|--------------------------------------------|
A|--------------------------------------------|
E|-1-1-1-1--1-1-1-1--1-1-1-1--1-1-1-1/--------|

Parte 03 de 03

G|--------------------------------------------|
D|--------------------------------------------|
A|-------------------3-3-3-3--3-3-3-3---------|
E|-5-5-5-5--5-5-5-5---------------------------|

G|--------------------------------------------|
D|--------------------------------------------|
A|--------------------------------------------|
E|-1-1-1-1--1-1-1-1--1-1-1-1--1-1-1-1/--------|

Parte 04 de 04

G|--------------------------------------------|
D|--------------------------------------------|
A|-------------------3-3-3-3--3-3-3-3---------|
E|-5-5-5-5--5-5-5-5---------------------------|

G|--------------------------------------------|
D|--------------------------------------------|
A|--------------------------------------------|
E|-1-1-1-1--1-1-1-1--1-1-1-1-3/12\-3/12\------|

[Refrão 2]

Someone like me...

Parte 01  de 04 

G|--------------------------------------------|
D|--------------------------------------------|
A|-3-3-3-3--3-3-3-3---------------------------|
E|-------------------0-0-0-0--0-0-0-0---------|

G|--------------------------------------------|
D|--------------------------------------------|
A|--------------------------------------------|
E|-1-1-1-1--1-1-1-1--1-1-1-1--1-1-1-1---------|

Parte 02 de 04

G|--------------------------------------------|
D|--------------------------------------------|
A|-3-3-3-3--3-3-3-3---------------------------|
E|-------------------0-0-0-0--0-0-0-0---------|

G|--------------------------------------------|
D|--------------------------------------------|
A|--------------------------------------------|
E|-1-1-1-1--1-1-1-1--1-1-1-1--1-1-1-1/--------|

Parte 03 de 04

G|--------------------------------------------|
D|--------------------------------------------|
A|-------------------3-3-3-3--3-3-3-3---------|
E|-5-5-5-5--5-5-5-5---------------------------|

G|--------------------------------------------|
D|--------------------------------------------|
A|--------------------------------------------|
E|-1-1-1-1--1-1-1-1--1-1-1-1--1-1-1-1/--------|

Parte 04 de 04

G|--------------------------------------------|
D|--------------------------------------------|
A|-------------------3-3-3-3--3-3-3-3---------|
E|-5-5-5-5--5-5-5-5---------------------------|

G|--------------------------------------------|
D|--------------------------------------------|
A|--------------------------------------------|
E|-1-1-1-1--1-1-1-1--1-1-1-1--1-1-1-1---------|

[Terceira Parte]

Parte 01 de 04

G|--------------------------------------------|
D|--------------------------------------------|
A|-5-5-5-5--5-5-5-5--5-5-5-5--5-5-5-5---------|
E|--------------------------------------------|

G|--------------------------------------------|
D|--------------------------------------------|
A|--------------------------------------------|
E|-2-2-2-2--2-2-2-2--2-2-2-2--2-2-2-2---------|

Parte 02 de 04

G|--------------------------------------------|
D|--------------------------------------------|
A|-5-5-5-5--5-5-5-5--5-5-5-5--5-5-5-5---------|
E|--------------------------------------------|

G|--------------------------------------------|
D|--------------------------------------------|
A|--------------------------------------------|
E|-2-2-2-2--2-2-2-2--2/8\---------------------|

Parte 03  de 04 

G|--------------------------------------------|
D|--------------------------------------------|
A|-3-3-3-3--3-3-3-3---------------------------|
E|-------------------0-0-0-0--0-0-0-0---------|

G|--------------------------------------------|
D|--------------------------------------------|
A|--------------------------------------------|
E|-1-1-1-1--1-1-1-1--1-1-1-1--1-1-1-1/--------|

Parte 04 de 04

G|-------------------------5------5-----------|
D|--------------------------------------------|
A|-------------------3-3-3----3-3---3---------|
E|-5-5-5-5--5-5-5-5---------------------------|

G|--------------------------------------------|
D|--------------------------------------------|
A|--------------------------------------------|
E|-1-1-1-1--1-1-1-1--1-1-1-1--1-1-1-1/--------|

[Refrão 3] 

Someone like me...

Parte 01 de 03

G|-------------------------5------5-----------|
D|--------------------------------------------|
A|-------------------3-3-3----3-3---3---------|
E|-5-5-5-5--5-5-5-5---------------------------|

G|--------------------------------------------|
D|--------------------------------------------|
A|--------------------------------------------|
E|-1-1-1-1--1-1-1-1--1-1-1-1--1-1-1-1/--------|

Parte 02 de 03

G|-------------------------5------5-----------|
D|--------------------------------------------|
A|-------------------3-3-3----3-3---3---------|
E|-5-5-5-5--5-5-5-5---------------------------|

G|--------------------------------------------|
D|--------------------------------------------|
A|--------------------------------------------|
E|-1-1-1-1--1-1-1-1--1-1-1-1--1-1-1-1/--------|

Pate 03 de 03

G|--------------------------------------------|
D|--------------------------------------------|
A|-------------------3-3-3-3--3-3-3-3---------|
E|-5-5-5-5--5-5-5-5---------------------------|

G|--------------------------------------------|
D|--------------------------------------------|
A|-8/2----------------------------------------|
E|--------------------------------------------|
Composición de Caleb Followill
Colaboración y revisión:
4.933 vistas

0 comentarios

Ver todos los comentarios
00:00 / 00:00
Outros vídeos desta música
Repetir Calidad Automático
Outros vídeos desta música
00:00 / 00:00
Automático
Capítulos
  • Tocando a música
  • Apresentação / Equipamentos
  • Dicas Introdução e Primeira Parte
  • Introdução - Parte 1 de 4
  • Introdução - Parte 2 de 4
  • Introdução - Parte 3 de 4
  • Introdução - Parte 4 de 4
  • Primeira Parte - Parte 1 de 4
  • Primeira Parte - Parte 2 de 4
  • Primeira Parte - Parte 3 de 4
  • Primeira Parte - Parte 4 de 4
  • Dicas Refrão e Segunda Parte
  • Refrão - Parte 1 de 4
  • Refrão - Parte 2 de 4
  • Refrão - Parte 3 de 4
  • Refrão - Parte 4 de 4
  • Segunda Parte - Parte 1 de 4
  • Segunda Parte - Parte 2 de 4
  • Segunda Parte - Parte 3 de 4
  • Segunda Parte - Parte 4 de 4
  • Dicas Segundo Refrão e Terceira Parte
  • Terceira Parte - Parte 1 de 4
  • Terceira Parte - Parte 2 de 4
  • Terceira Parte - Parte 3 de 4
  • Terceira Parte - Parte 4 de 4
  • Terceiro Refrão - Parte 1 de 3
  • Terceiro Refrão - Parte 2 de 3
  • Terceiro Refrão - Parte 3 de 3
  • Encerramento
  • Ficha Técnica
OK