Cifra Club

Aprenda

Paloma Blanca

La Oreja De Van Gogh

Tablatura: Principal (guitarra)
tono: G
G                   D    Em              C
 Estrella de mi vida.....  espérame mi amor
G                    D     Em              C
 Que apenas te iluminas....  y ya dices adiós
        Am                       D
como un pétalo que viaja por el aire
C                           D
Y deja una caricia por mi piel
G                     D      Em                    C
 Con tinta de agua clara....  sobre una piedra al sol
G                D      Em               C
 Te dibujé despacio...   sus ojos y mi voz
      Am                       D
Como gotas de rocío caen a un lado
C                            D(un rasgueo prolongado)
Y rompen el espejo al cielo azul

       G
Paloma blanca
Em                        Bm
Pasaste tan cerca de mi ventana
     Am         D            G
Que revolviste todo con tus alas
Em                             Bm
Me despeinaste entera todo el alma
   C           D       G          Em
Nunca te olvidaré y siempre llevaré
   C       D          G
Tu cara encima de mi cara

G                    D    Em                     C
 Cuando vuelva febrero..... y se haya puesto el sol
G                    D     Em                 C
 Te buscaré en la noche..... estrella de mi amor
     Am                      D
Soplaré contigo tu primera vela
     Am                    D   D
Y cruzarás el manto celestial

       G
Paloma blanca
Em                        Bm
Pasaste tan cerca de mi ventana
     Am         D            G
Que revolviste todo con tus alas
Em                             Bm
Me despeinaste entera todo el alma
   C           D       G          Em
Nunca te olvidaré y siempre llevaré
   C       D          G
Tu cara encima de mi cara

 D C Am D  D C Am D

SOLO:
E|----------------------------------
B|---------11~--11h13--(8)h9~-------
G|-10--13---------------------------
D|----------------------------------
A|----------------------------------
E|----------------------------------

E|----------------------------------
B|---------11-----11----11-13-11----
G|-10--13------13----13-------------
D|----------------------------------
A|----------------------------------
E|----------------------------------

E|------------------11~--9~---------
B|--11s13-11--11~~------------------
G|----------13----------------------
D|----------------------------------
A|----------------------------------
E|----------------------------------

E|--------------------------------------
B|--14-13--14~-13-14-13-14-14s18p16~~---
G|-------15-----------------------------
D|--------------------------------------
A|--------------------------------------
E|--------------------------------------


       G
Paloma blanca
Em                        Bm
Pasaste tan cerca de mi ventana
     Am         D            G
Que revolviste todo con tus alas
Em                             Bm
Me despeinaste entera todo el alma
   C           D       G          Em
Nunca te olvidaré y siempre llevaré
   C       D          G
Tu cara encima de mi cara

   C       D          G
Tu cara encima de mi cara oh...
   C       D          G
Tu cara encima de mi cara
Colaboración y revision:
  • Milla Vergara
94 reproducciones
    • ½ Tono
    • A
    • Bb
    • B
    • C
    • Db
    • D
    • Eb
    • E
    • F
    • F#
    • G
    • Ab
  • Adicionar à lista

    0 comentarios

    Ver todos os comentários

    ¿Conseguiste tocar?

    1 Tocaram 0 Ainda não

    Grave um vídeo tocando Paloma Blanca e nos envie!

    00:00 / 00:00
    outros vídeos desta música
    repetir qualidade Automático
    Outros vídeos desta música
    00:00 / 00:00
    Automático
    OK