Cifra Club

Nadie llorara por ti

La Polla Records

Cifrado: Principal (guitarra y guitarra eléctrica)
Acompaña nuestras novedades de Cifra Club en español.
¡Sigue nuestro perfil en Instagram!
tono: G
                        D 
        cuando vivas dentro de una prostituta
                        D 
         y trabajes en un club de carretera
              C          G          D 
            no no llorara nadie por ti
                        D 
        cuando te desangres de haber abortado
                        D 
         por que tu dinero no fue suficiente
              C         G           D 
            no no llorara nadie por ti

                   (punteo)

E|--------------------------------------|
B|--------------------------------------|
G|--------------------------------------|
D|-------7-5-4--------------------------|
A|---5-5-------3-3-7-5-3-------2-7-5----|
E|-----------------------3-3-3----------|



                        D 
          cuando seas un mendigo apaleado
                        D 
          y te metan en un ataud sin nombre
              C          G  
           no,  no llorara nadie no
               D   F5   C   G    X 3

                 D      C      G       D 
        ooooooooh oooooooh oooooooh oooooooh
               D    F5  C   G    X 3

                        D 
        cuando la pobresa te puje a la uida
                        D 
        y los peces coman tu cuerpo sin vida
              C          G           D 
            no, no llorara nadie por ti
                        D 
        cuando la metralladora te aiga tronado
                        D 
          junto a tu cadaver de niño soldado
               C         G           D 
            no, no llorara nadie por ti
                 D     C      G    D 
               no llorara nadie por ti
                D      C      G    D 
               no llorara nadie por ti
                 D     C       G  
               no llorara nadie  no

              D   F5   C   G     X2

         UNA GUITARRA BG UE CON  D   C   G  
            Y A  OTRA HACE ESTE PUNTEO

E|--------------------------------------------------------|
B|--------------------------------------------------------|
G|--------------------------------------------------------|
D|------7-5-4------------------------7-5-4--------------2-|
A|--5-5-------3-3--7-5-3-----2-7-5-5-------3-3-7-5-3--2---|
E|-----------------------3-3-------------------------3----|
Composición de Javier reyes
2 vistas
    • ½ Tono
    • A
    • Bb
    • B
    • C
    • Db
    • D
    • Eb
    • E
    • F
    • F#
    • G
    • Ab
  • Agregar a la lista

    0 comentarios

    Ver todos los comentarios

    ¿Lograste tocar?

    0 Tocaron 0 Aún no

    ¡Graba un video tocando Nadie llorara por ti y envíanoslo!

    00:00 / 00:00
    Outros vídeos desta música
    Repetir Calidad Automático
    Outros vídeos desta música
    00:00 / 00:00
    Automático
    OK