Cifra Club

Dopeman

Less Than Jake

Cifrado: Principal (guitarra y guitarra eléctrica)
Selo Cifra Club: esta cifra foi revisada para atender aos critérios oficiais da nossa Equipe de Qualidade.
tono: G
Intro ( Guitarra )

e|----------------------------------------------------------|
B|----------------------------------------------------------|
G|-5-4-5-4--------4----5-4-5-4------------------------------|x2
D|---------7-5-045-545---------7-5-0457545------------------|
A|----------------------------------------------------------|
E|----------------------------------------------------------|
    [ abafado rapidamente ]

  Intro
e|----------------------------------------------------------|
B|-----------------------5-3--------------------------------|
G|-5-4-5-4-5-4---5-4-5-4------5-4-5-4-5-4--5-5--7-----------|
D|----------------------------------------------------------|
A|----------------------------------------------------------|
E|----------------------------------------------------------|

  Verso: (Batida de ska, com mudanças rápidas de acordes) 
e|-3-----3-----5--------------------------------------------|
B|-3-----5-----7--------------------------------------------|
G|-4-etc-5-etc-7--etc---------------------------------------|
D|-5-----5-----7--------------------------------------------|
A|----------------------------------------------------------|
E|----------------------------------------------------------|

  Refrão: 
e|-1-----3-------|-1-----3-----3-----|
B|-1-----5-------|-1-----5-----3-----|
G|-2-----5-------|-2-----5-----4-----|
D|-3-etc-5-etc---|-3-etc-5-etc-5-etc-|
A|-3-----3-------|-3-----3-----------|
E|---------------|-------------------|

Solinho de baixo:

G|---------------------------------------------------------|
D|----------------------------------------5455-------------|
A|------23532-3320-5---------23532-3320-5------------------|
E|-33-3-----------------33-3-------------------------------|

 Guitarra tocada durante o solo de baixo ( bastante abafada ) 
e|-------------------------------------------3-------------|
B|-------------------------------------------5-------------|
G|-------------------------------------------5-------------|
D|------------------5555-----------------------------------|
A|------------------5555-----------------------------------|
E|------------------5555-----------------------------------|
                    
                    1234
                    UDUD


  Termina com:
e|-3--------------------|
B|-3--------------------|
G|-4--------------------|
D|-5--------------------|
A|-5--------------------|
E|-3--------------------|





Intro     x1 (Guitar + Horns)
Verso     x8
Refrao    x2
Verso     x8
Solo de baixo x1 (com guitarra)
Intro     x1.5
Refrao    x2
Verse     x8 
Fim       x1
Otros videos de esta canción
    16 exhibiciones
      • ½ Tono
      • A
      • Bb
      • B
      • C
      • Db
      • D
      • Eb
      • E
      • F
      • F#
      • G
      • Ab
    • Agregar a la lista

    Afinação da cifra

    Afinador online

      Ops (: Contenido disponible solo en portugués.
      OK