Cifra Club

Desde el puente carretero

Los Carabajal

Cifrado: Principal (guitarra y guitarra eléctrica)
tono: A

E|-0--0--12--0--10--9--0--0--10--0--8--7-/-0--9--0--7-|
B|----------------------------------------------------|
G|----------------------------------------------------|
D|----------------------------------------------------|
A|----------------------------------------------------|
E|----------------------------------------------------|

E|-5-/------------------------------------------------|
B|-----------------0--3--2--3--3--2--3--2--3--3--2-/--|
G|-----2--2--2--2-------------------------------------|
D|----------------------------------------------------|
A|----------------------------------------------------|
E|----------------------------------------------------|

E|-0--0--0--9--9--9--9--7--7--9--10--9--9--7----------|
B|--------------------------------------------10------|
G|----------------------------------------------------|
D|----------------------------------------------------|
A|----------------------------------------------------|
E|----------------------------------------------------|
tema
       A7            D 
Si pasas por mi provincia
                    A 
con tu familia viajero
                       B 
veras que lindo es el río
             E7        A 
desde el Puente Carretero.

Introducción

Es cuna de mil recuerdos
de amores y de nostalgias
corazón entrelazado
entre Santiago y La Banda.

Introducción

Será el Puente Carretero
que va cortando caminos
para llegar a los brazos
donde me espera un cariño.

Encontrarás en mi tierra
cantores de salamanca
para que nunca te olvides
aromas a Santiago manta.


Introducción

Por nada olvides viajero
lo que sienten mis paisanos
seguro te han de querer
como se quiere a un hermano.

Introducción

Y cuando llega la noche
te pasas mirando el río
seguro que algún dorado
se besa con el rocío.

Introducción

Coplitas que van naciendo
de mi corazón travieso
me hacen cosquilla en el alma
cuando se agranda el silencio.
Encontrarás en mi tierra ...
00:00 / 00:00
Otros videos de esta canción
Repetir
Otros videos de esta canción
Compositor no encontrado.
2 vistas
    • ½ Tono
    • A
    • Bb
    • B
    • C
    • Db
    • D
    • Eb
    • E
    • F
    • F#
    • G
    • Ab
  • Agregar a la lista

    0 comentarios

    Ver todos los comentarios

    ¿Lograste tocar?

    0 Tocaron 0 Aún no

    ¡Graba un video tocando Desde el puente carretero y envíanoslo!

    00:00 / 00:00
    OK