Cifra Club

Aprenda

Teenagers

My Chemical Romance

Tab de bajo: Versão 2
Verse. Bass doesn't come in until "Because the drugs never work."
G|----------------------------------|
D|----------------------------------|
A|-7\--7\--7\---2--0-----22222222---|
E|--------------------0-----------0-|

Chorus
G|------------------------------------------------------------------------------------------|
D|------------------------------------------------------------------------------------------|
A|----------------------------------------22-5-2-2-5-2-00-4-0-0-4-0---------------22222222--|
E|-00-4-0-0-4-0-00-4-0-0-4-0-00-4-0-0-4-0----------------------------00-4-0-0-4-0---------0-|

Verse x1
Chorus x1

Bridge:
G|-------------------22------------------------------------|
D|-------------22-44---44-22-------------------------------|
A|-------00-44----------------44--------22-44-55-44-22-00--|
E|-0-2-4--------------------------00-22--------------------|

G|---------------22----------------------------|
D|---------22-44---44-22-----------------------|
A|--00-44----------------44---2222222222222222-|
E|---------------------------------------------|

Chorus x2
Composição de Bob Bryar / Frank Iero / Gerard Way
Colaboración y revision:
  • Élison Duarte
7 reproducciones

0 comentarios

Ver todos os comentários

¿Conseguiste tocar?

0 Tocaram 0 Ainda não

Grave um vídeo tocando Teenagers e nos envie!

00:00 / 00:00
outros vídeos desta música
repetir qualidade Automático
Outros vídeos desta música
00:00 / 00:00
Automático
OK