Cifra Club

Presente De Um Beija-Flor

Natiruts

Tab de bajo: Gravacao-original-a-mais-corre
Intro:
G|-------------------------------------------------------------------------------|
D|--------------4--3-------------------------------------------------------------|
A|-----------4------------4------6--6---4--6-------------------------------------|
E|--4--6--7-------------6---6----------------------------------------------------|

G|-------------------------------------------------------------------------------|
D|-----------------4--3----------------------------------------------------------|
A|-----------4--6--------6-8-6-----4--------------4--6-------4--6--4-----4-------|
E|--4--6--7-----------------------------6--4--6---------4--6----------6----------|

G|-------------------------------------------------------------------------------|
D|-----------------4--3-----------------4-4-4-3-3-3------------------------------|
A|-----------4--6--------6--8--6---4-----------------6---------------------------|
E|--4--6--7----------------------------------------------------------------------|

   RIFF 1:
G|-------------------------------------------------------------------------------|
D|-------------------------------------------------------------------------------|
A|------------4--4--4--4---4-------------4--6-------4--6--4----4-----------------|
E|--4--4--2--4--------------4---6--4--6-------4--6-----------6-------------------|
                                                                          
   RIFF 2:
G|-------------------------------------------------------------------------------|
D|--------------4--3-------------------------------------------------------------|
A|-----------4--------------4------6--6---4--6--6---4--4/6--4-------4------------|
E|--4--6--7--------------6-----6--------------------------------6----------------|
                                                                               
  RIFF 1:
O Beija-flor que trouxe meu amor
Voou e foi embora
Olha só como é lindo meu amor
Estou feliz agora

   RIFF 2:
Veja só a névoa branca que sai de trás do bambuzal
Será que ela me faz bem ou será que me faz mal
Eu vou surfar no cêu azul de nuvens doidas
Da capital do meu país
Pra ver se esqueço da pobreza e violência
Que deixa o meu povo infeliz

   RIFF 1:
Beija-flor que trouxe meu amor
Voou e foi embora
Olha só como é lindo meu amor
Estou feliz agora

   RIFF 2:
E a menina que um dia por acaso veio me dizer
Que não gostava de meninos tão largados
Que tocam reggae e M.P.B
Mas isso é coisa tão banal, perto da beleza do Planalto Central
E das pessoas que fazem do cerrado
O habitat quase ideal

   RIFF 1:
Beija-flor que trouxe meu amor
Voou e foi embora
Olha só como é lindo meu amor
Estou feliz agora

   RIFF 2:
Fim de ano vou embora de Brasília que é pra eu ver o mar
Mas diz pra mão lá pro final de fevereiro é que eu vou voltar
Que é pra surfar no céu azul de nuvens doidas
Da capital do meu país
Pra ver se esqueço da pobreza e violência
Que deixa o meu povo infeliz

   RIFF 1:
Beija-flor que trouxe meu amor
Voou e foi embora
Olha só como é lindo meu amor
Estou feliz agora

Final: solo de guitarra com o RIFF 1
Composición de Natiruts
Colaboración y revisión:
  • João Santos
76 vistas

0 comentarios

Ver todos los comentarios

¿Lograste tocar?

1 Tocaron 0 Aún no

¡Graba un video tocando Presente De Um Beija-Flor y envíanoslo!

00:00 / 00:00
Outros vídeos desta música
Repetir Calidad Automático
Outros vídeos desta música
00:00 / 00:00
Automático
OK