Cifra Club

Song Of My Returning

Pinhead Gunpowder

Cifrado: Principal (guitarra y guitarra eléctrica)
tono: C
INTRO
G|-----------------------------------
D|-----------------------------------
A|-(guitar)-333333333----------------
E|-----------------------------------

VERSE
G|------------------------------------------------------
D|------------------------------------------------------
A|-3~~~~~~~~~3~~~~~~~~~~~~~~~~3~~~~~~~~~~~~~~~~~~0~~~~~-
E|------------------------------------------------------
    The weary world is waiting for ambition to be played 

G|---------------------------------------------------------------------------
D|---------------------------------------------------------------------------
A|-3-3-3-3-3-3-3-3-0-0-0-0---------------------------------------------------
E|-------------------------1-1-1-1-1-1-1-1-1-1-1-1-1-1-1-3-3-3-3-3-3-3-3-3-3- 
    Now you and not affraid I've got to challenge every challenge that I know

CHORUS
G|---------------------------------------------------------------------------
D|---------------------------------------------------------------------------
A|---------------------------------------------------------------------------
E|0-0-0-0-0-0-0-0-0-0-0-0-5-5-5-5-5-5-5-5-5-5-5-1-1-1-1-1-1-1-1-1-1-1-1-3-3-3
   But i'll be back again, No matter where i go, For its only love that frees 

G|---------------------------------------------------------------------------
D|---------------------------------------------------------------------------
A|-------------3-3-3-3-------------------------------------------------------
E|-3-3-3-3-3-3---------0-0-0-0-0-0-0-0-0-0-0-0-0-0-5-5-5-5-5-5-5-5-5-5-5-5-5-
   The fire for burning And I'll take you in my arms and tell you all I know

G|---------------------------------------------------------------------------
D|---------------------------------------------------------------------------
A|---------------------------------------------------------------------------
E|1-1-1-1-1-1-1-1-1-3-3-3-3-3-3-3-3-33~--------------------------------------
   As I sing the changing songs of my returning
00:00 / 00:00
Otros videos de esta canción
Repetir
Otros videos de esta canción
Composición de Phil Ochs
Colaboración y revisión:
  • Rodolpho Fernando
17 exhibiciones
    • ½ Tono
    • A
    • Bb
    • B
    • C
    • Db
    • D
    • Eb
    • E
    • F
    • F#
    • G
    • Ab
  • Agregar a la lista
    00:00 / 00:00
    OK