Cifra Club

Rock N Roll Will Take You To The Mountain

Skrillex

Cifrado: Principal (guitarra y guitarra eléctrica)
Selo Cifra Club: esta cifra foi revisada para atender aos critérios oficiais da nossa Equipe de Qualidade.
tono: E
Hello Again, To all my friends...(00:18 - 00:40)
E|-----------------------------------------------------------------|
B|-----------------------------------------------------------------|
G|-----------------------------------------------------------------|
D|-/14-14--12-14--12-14-12-14--12-12-12-12-12-12--12--/17-17-14----|
A|-----------------------------------------------------------------|
E|-----------------------------------------------------------------|

E|-----------------------------------------------------------------|
B|-----------------------------------------------------------------|
G|-----------------------------------------------------------------|
D|-/12-12--10-12--10-12-10-12--7-7-7-7-7-7--7--9-7-----------------| x3
A|-------------------------------------------------10--------------|
E|-----------------------------------------------------------------|

And Rock N Roll... (00:40 - 00:55)

(Vocal Synth + Slides)   x6      then
E|-----------------------------|------------------------------------|
B|-----------------------------|------------------------------------|
G|--------------/10\-/10\------|------------------------------5*wb--|
D|-7-9-7-----7-----------------|-9--7-9--7-9--7-9--7-9-9-9-9--------|
A|-------10--------------------|------------------------------------|
E|-----------------------------|------------------------------------|

Rock N' Roll! (00:55 - 01:25)

E|-----------------------------------------------------------------|
B|-----------------------------------------------------------------|
G|-----------------------------------------------------------------|
D|-2--------2----------2--------2------------2--------2------------|
A|-2-2-2-2--2--7\--7\--2-2-2-2----2-2-2--7\--2-2-2-2--2--7\--7\----|
E|-2-2-2-2--2----------2-2-2-2----2-2-2------2-2-2-2--2------------|
PM   . . .               . . .    . . .        . . .

E|-----10--------------------------|
B|--8-----10--8--7--8--7b8-5-------|
G|---------------------------------|
D|---------------------------------| x3
A|---------------------------------|
E|---------------------------------|

then                      T       T       T       T       T        T        T        T
E|-----------------------15-8h12-15-8h12-15-8h12-15-8h12-17-10h14-17-10h14-17-10h14-17-|
B|-------------------------------------------------------------------------------------|
G|-------------------------------------------------------------------------------------|
D|-2-----------------------------------------------------------------------------------|
A|-2-2-2-2-2-2--7\--7\-----------------------------------------------------------------|
E|-2-2-2-2-2-2-------------------------------------------------------------------------|
PM   . . . . .

First Chorus (01:25 - 01:55)

E|----------------------------------------------------------------------------------------|
B|-/12-12-12-10-8\--8\--/12-12-12-10---/10-10-10--8-7-8-10-8-7-8--8p7------------7h8p7----|
G|-------------------------------------------------------------------9p7h9~---7h9-----9p7-|
D|----------------------------------------------------------------------------------------|
A|----------------------------------------------------------------------------------------|
E|----------------------------------------------------------------------------------------|

E|----------------------------------------------------------------------------------------|
B|-/12-12-12-10-8\--/12-10-12-12-12-10---/10-10-10--8-7-8-10-8-7-8--12*wb-----------------|
G|----------------------------------------------------------------------------------------|
D|----------------------------------------------------------------------------------------|
A|----------------------------------------------------------------------------------------|
E|----------------------------------------------------------------------------------------|

E|------------------------------14-15-14--------------------------------------------------|
B|-/12-12-12-15-17\--17\-x-x---------------10--8-7-8-10-8-7-8--8p7------------7h8p7-------|
G|----------------------------------------------------------------9p7h9~---7h9-----9p7----|
D|----------------------------------------------------------------------------------------|
A|----------------------------------------------------------------------------------------|
E|----------------------------------------------------------------------------------------|

E|----------------------------------------------------------------------------------------|
B|-/12-12-12-10-8\--/12-10-12-12-12-10---/10-10-10--8-7-8-10-8-7-8--12*wb-----------------|
G|----------------------------------------------------------------------------------------|
D|----------------------------------------------------------------------------------------|
A|----------------------------------------------------------------------------------------|
E|----------------------------------------------------------------------------------------|

Hello Again, To all my friends...(01:55 - 02:24)
E|-----------------------------------------------------------------|
B|-----------------------------------------------------------------|
G|-----------------------------------------------------------------|
D|-/14-14--12-14--12-14-12-14--12-12-12-12-12-12--12--/17-17-14----|
A|-----------------------------------------------------------------|
E|-----------------------------------------------------------------|

E|-----------------------------------------------------------------|
B|-----------------------------------------------------------------|
G|-----------------------------------------------------------------|
D|-/12-12--10-12--10-12-10-12--7-7-7-7-7-7--7--9-7-----------------| x2
A|-------------------------------------------------10--------------|
E|-----------------------------------------------------------------|

(Vocal Synth + Slides)   x6      then
E|-----------------------------|-----------------------------------|
B|-----------------------------|-----------------------------------|
G|--------------/10\-/10\------|------------------------------9wb--|
D|-7-9-7-----7-----------------|-9--7-9--7-9--7-9--7-9-9-9-9--9wb--|
A|-------10--------------------|------------------------------7wb--|
E|-----------------------------|-----------------------------------|

Da Big Drop (02:25 - 02:55)

E|-----------------------10------------------------------------------------------|
B|---------------------8----10-8--------------+16+\------------------------------|
G|-------------------------------------------------------------------------------|
D|-2~-----------------------------------------------------------------2~---------|
A|-2~--7-7-7-7-7-7-7-7------------2-2--2-2--2---------7-7-7-7-7-7-7-7-2~---------| x2
E|-2~-----------------------------2-2--2-2--2-------------------------2~--2/14\2-|
PM                                . .  . .  .

E|------------------------------------------------------------------------|
B|------------------------------------------------------------------------|
G|-------------9\--9\--------------------9--------------------9-9-9-9-9-9-|
D|-2--------2--9\--9\--2--------2--------9\---------------2---9-9-9-9-9-9-|
A|-2-2-2-2--2--7\--7\--2-2-2-2----2-2-2--7\--2-2-2-2-2-2--2---7-7-7-7-7-7-|
E|-2-2-2-2--2----------2-2-2-2----2-2-2------2-2-2-2-2-2--2---------------|
PM   . . .               . . .    . . .      . . . . . .

E|-----10--------------------------|
B|--8-----10--8--7--8--7b8-5-------|
G|---------------------------------|
D|---------------------------------|
A|---------------------------------|
E|---------------------------------|

E|-----------------------10---------------------------------------------|
B|---------------------8----10-8--------------+16+\---------------------|
G|----------------------------------------------------------------------|
D|-2~-------------------------------------------------------------------|
A|-2~--7-7-7-7-7-7-7-7------------2-2--2-2--2---------7-7-7-7-7-7-7-7---|
E|-2~-----------------------------2-2--2-2--2---------------------------|
PM                                . .  . .  .

E|------------------------------|
B|------------------------8~----|
G|------------------------9~----|
D|------------------------9~----|
A|-2--2-2-2--2--2--2------7~----|
E|-2--2-2-2--2--2--2------------|
PM .  . . .

Solo (02:58 - 03:09)
-Optional, i play this little solo of mine, 
but you can choose not to play it, or make your own solo!- 

E|----------------------------------------------------------|
B|---------------------------15b17-------------+15+---------|
G|----------14--15b17~---14--------14--12--14---------------|
D|-/14--17--------------------------------------------------|
A|----------------------------------------------------------|
E|----------------------------------------------------------|

E|---------------------------------------------------------------------------------|
B|-----------------------------------------------------------------------------15--|
G|-5h7p5h7p5h7p5h7-7h9p7h9p7h9p7h9-9h11p9-11h12p11-12h14p12-14h15p14-15h17p17------|
D|---------------------------------------------------------------------------------|
A|---------------------------------------------------------------------------------|
E|---------------------------------------------------------------------------------|
        T               T               T                  T     T     T     T     T     T
E|-----------------------------------------------------15-19-15-19-15-19-15-19-15-19-15-19-|
B|-13--18b20--15p13h15-18b20--15p13h15-18b20--15p13h15-------------------------------------|
G|-----------------------------------------------------------------------------------------|
D|-----------------------------------------------------------------------------------------|
A|-----------------------------------------------------------------------------------------|
E|-----------------------------------------------------------------------------------------|

Final Chorus (03:10 - 04:00) 
-At 3:40 can be alternated with the "Hello Again..." part, also i play a higher harmony too
just find the correct sound in the 1st string(e) between 12 and 19 frets-

E|----------------------------------------------------------------------------------------|
B|-/12-12-12-10-8\--8\--/12-12-12-10---/10-10-10--8-7-8-10-8-7-8--8p7------------7h8p7----|
G|-------------------------------------------------------------------9p7h9~---7h9-----9p7-|
D|----------------------------------------------------------------------------------------|
A|----------------------------------------------------------------------------------------|
E|----------------------------------------------------------------------------------------|

E|----------------------------------------------------------------------------------------|
B|-/12-12-12-10-8\--/12-10-12-12-12-10---/10-10-10--8-7-8-10-8-7-8--12*wb-----------------|
G|----------------------------------------------------------------------------------------|
D|----------------------------------------------------------------------------------------|
A|----------------------------------------------------------------------------------------|
E|----------------------------------------------------------------------------------------|

E|------------------------------14-15-14--------------------------------------------------|
B|-/12-12-12-15-17\--17\-x-x---------------10--8-7-8-10-8-7-8--8p7------------7h8p7-------|
G|----------------------------------------------------------------9p7h9~---7h9-----9p7----|
D|----------------------------------------------------------------------------------------|
A|----------------------------------------------------------------------------------------|
E|----------------------------------------------------------------------------------------|

E|----------------------------------------------------------------------------------------|
B|-/12-12-12-10-8\--/12-10-12-12-12-10---/10-10-10--8-7-8-10-8-7-8--12*wb-----------------|
G|----------------------------------------------------------------------------------------|
D|----------------------------------------------------------------------------------------|
A|----------------------------------------------------------------------------------------|
E|----------------------------------------------------------------------------------------|
Otros videos de esta canción
5 exhibiciones
    • ½ Tono
    • A
    • Bb
    • B
    • C
    • Db
    • D
    • Eb
    • E
    • F
    • F#
    • G
    • Ab
  • Agregar a la lista

Afinación de cifrado

Afinador online

    OK