Cifra Club

Aprenda

For The Sake Of Revenge

Sonata Arctica

Tablatura: Principal (guitarra)
Tom: C#
Tuning: Bb - Eb - Ab - Db - Gb - Bb - Eb (1/2 step down, 7 string)

---------------------------------------------------------------------------

| Intro (00:11)
|-------------------------------------------------------------------------|
|-------------------------------------------------------------------------|
|-------------------------------------------------------------------------|
|--XX------------------2-2-2-2-2-2-2-XX------------------2-2-2-2-2--------|
|--XX-2-2-2-2-2-2-2-XX-0-0-0-0-0-0-0-XX-2-2-2-2-2-2-2-XX-0-0-0-0-0-5-5-5--|
|-----5-5-5-5-5-5-5-XX------------------5-5-5-5-5-5-5-XX-----------3-3-3--|
|-------------------------------------------------------------------------|

| Verse 1          | Bridge 1                           | Chorus 1
|------------------|------------------------------------|------------------|
|------------------|------------------------------------|------------------|
|--Without guitar--|------------------------------------|------------------|
|-Until the bridge-|---------------2~-------------------|--2~----5~--------|
|---at 00:50.------|--XX-3~--------0~---------3~--------|--0~----3~----2~--|
|------------------|--XX-1~-------------------1~--------|--------------0~--|
|------------------|------------------------------------|------------------|

              x4 | Verse 2          | Bridge 2
|----------------|------------------|---------------------------------------|
|----------------|------------------|---------------------------------------|
|----------------|------------------|---------------------------------------|
|----------------|--Without guitar--|---------------2~-------------------2~-|
|--5~---\--------|-Until the bridge-|--XX-3~--------0~---------3~--------0~-|
|--5~---\--------|---at 02:09.------|--XX-1~-------------------1~-----------|
|--3~---\--------|------------------|---------------------------------------|

                                                         | Chorus 2
|--------------------------------------------------------|-----------------|
|--------------------------------------------------------|-----------------|
|--------------------------------------------------------|-----------------|
|-----------------------2~-------------------5~----5~----|--2~----5~-------|
|----5~-------3~--------0~---------3~--------3~----2~----|--0~----3~----2~-|
|----3~-------1~-------------------1~--------------------|--------------0~-|
|--------------------------------------------------------|-----------------|

        x3 |                   Let ring out
|----------|------------------------/-----------------|
|----------|-----------------------/------------------|
|----------|----------------------/-------------------|
|----------|--2~----5~-----------/--------------------|
|----5~----|--0~----3~----2~----5~--------------------|
|----5~----|--------------0~----5~--------------------|
|----3~----|--------------------3~--------------------|

End...
Compositor Tony Kakko
Colaboración y revision:
  • Icaro Ventura
44 reproducciones
    • ½ Tom
    • A
    • Bb
    • B
    • C
    • Db
    • D
    • Eb
    • E
    • F
    • F#
    • G
    • Ab
  • Adicionar à lista

    0 comentarios

    Mostrar mais comentários

    ¿Conseguiste tocar?

    0 Tocaron 0 Ainda não

    Grave um vídeo tocando For The Sake Of Revenge e mande pra gente!

    00:00 / 00:00
    outros vídeos desta música
    repetir qualidade Automático
    Outros vídeos desta música
    00:00 / 00:00
    Automático
    OK