Cifra Club

Half Full Glass Of Wine

Tame Impala

Tablatura: Principal (guitarra)
Tom: G
Guitar 1:
E|-----------------------------------------------|
B|-----------------------------------------------|
G|-----------------------------------------------|
D|-----6b6.5------6b6.5------6b6.5------6b6.5----|
A|-8-8-------8--8-------8--8-------8--8-------8--|
E|-----------------------------------------------|

Guitar 1:
E|---------------------------------------------|
B|---------------------------------------------|
G|---------------------------------------------|
D|---6b6.5------6b6.5------6b6.5------6b6.5----|
A|-8-------8--8-------8--8-------8--8-------8--|
E|---------------------------------------------|

Guitar 1:
E|---------------------------------------------|
B|---------------------------------------------|
G|---------------------------------------------|
D|---6b6.5------6b6.5------6b6.5------6b6.5----|
A|-8-------8--8-------8--8-------8--8-------8--|
E|---------------------------------------------|

Guitar 1 - the riff slows down at the last two repeats:
E|--------------------------------------------------|
B|--------------------------------------------------|
G|--------------------------------------------------|
D|---6b6.5------6b6.5-------6b6.5---------6b6.5-----|
A|-8-------8--8-------8--8---------8---8---------8--|
E|--------------------------------------------------|

Guitar 2 does this on the second bend in the riff above:
E|--------------------------------------------------|
B|--------------------------------------------------|
G|--------------10-b12------------------------------|
D|--------------------------------------------------|
A|--------------------------------------------------|
E|--------------------------------------------------|


Main riff:
E|-------------------------------------------------------------------------------------|
B|-------------------------------------------------------------------------------------|
G|----------------------------------------------------------------------------9--7--9--| x2
D|----------------------------------------------------------10---------------10--8-10--|
A|-----6b6.5------6b6.5------6b6.5------6b6.5------6b6.5-------10----6-8-10------------|
E|-8-8-------8--8-------8--8-------8--8-------8--8-------8--------8--------------------|


Verse:
"Said you wouldn't be home late tonight"
E|-------------------|
B|-------------------|
G|-------------------|
D|-------------------|
A|-------------------|
E|-8--8-8--8-8--8-8--|


Riff:
E|-------------------------------------------------|
B|-------------------------------------------------|
G|-------------------------------------------------|
D|-------------------------------------------------|
A|-------6b6.5------6b6.5------6b6.5------6b6.5----|
E|-6-8-8-------8--8-------8--8-------8--8-------8--|


Verse:
"I gave up waiting at seventeen past midnight"
E|-------------------|
B|-------------------|
G|-------------------|
D|-------------------|
A|-------------------|
E|-8--8-8--8-8--8-8--|


Alternate riff:
E|----------------------------------------|
B|----------------------------------------|
G|---------8b8.5----------------9--9\7-7--|
D|-8-10-10-------10-------------X--X\X-X--|
A|-------------------8--9--10--10-10\8-8--|
E|------------------------------8--8\6-6--|


Verse:
"Now my only company's a half full glass of wine"
E|--8---8--8---8--8---8--8----8--8--8---8--8---8---8--8--|
B|-10--10-10--10-10--10-10---10-10-10--10-10--10--10-10--|
G|-10--10-10--10-10--10-10---10-10-10--10-10--10--10-10--|
D|-10--10-10--10-10--10-10---10-10-10--10-10--10--10-10--|
A|--8---8--8---8--8---8--8----8--8--8---8--8---8---8--8--|
E|-------------------------------------------------------|


Riff:
E|-----------------------------------------------|
B|-----------------------------------------------|
G|-----------------------------------------------|
D|-----------------------------------------------|
A|-----6b6.5------6b6.5------6b6.5------6b6.5----|
E|-8-8-------8--8-------8--8-------8--8-------8--|


Verse:
"Leave me no choice but to plot my revenge,
You leave me no choice but to plot my revenge"
Guitar 1:
E|---------------------------------------------------------------------|
B|---------------------------------------------------------------------|
G|---------------------------------------------------------------------|
D|---------------------------------------------------------------------|
A|---------------------------------------------------------------------|
E|-8--8-8--8-8--8-8--8-8--8-8--8-8--8-8--8-8--8-8--8-8--8-8--8-8--8-8--|

Guitar 2 plays this little lick quietly in the background:
E|---------------------------------------------------------------------|
B|---------------------------------------------------------------------|
G|----------------------------8-10b12--12br10-8------------------------|
D|----------------------------------------------10~--------------------|
A|---------------------------------------------------------------------|
E|---------------------------------------------------------------------|


Then strum this chord:
E|--8---8--8---8--8---8--8\--|
B|-10--10-10--10-10--10-10\--|
G|-10--10-10--10-10--10-10\--|
D|-10--10-10--10-10--10-10\--|
A|--8---8--8---8--8---8--8\--|
E|---------------------------|


Main riff:
E|-------------------------------------------------------------------------------------|
B|-------------------------------------------------------------------------------------|
G|----------------------------------------------------------------------------9--7--9--| x2
D|----------------------------------------------------------10---------------10--8-10--|
A|-----6b6.5------6b6.5------6b6.5------6b6.5------6b6.5-------10----6-8-10------------|
E|-8-8-------8--8-------8--8-------8--8-------8--8-------8--------8--------------------|

Chorus:
"It's been so long since I held your hand,
You don't know how hard it can be"
E|--------------8--------------6--|
B|-------------10--------------6--|
G|-------------10--------------7--| x3
D|---------5---10----------5---8--|
A|-----5--------8------5-------8--|
E|-3-3---3---3-----3-3---3---3-6--|

And then you play:
E|--------------8--3-3--3-3--3-3--3-3--|
B|-------------10--3-3--3-3--3-3--3-3--|
G|-------------10--4-4--4-4--4-4--4-4--|
D|---------5---10--5-5--5-5--5-5--5-5--|
A|-----5--------8--5-5--5-5--5-5--5-5--|
E|-3-3---3---3-----3-3--3-3--3-3--3-3--|


Main riff:
E|-------------------------------------------------------------------------------------|
B|-------------------------------------------------------------------------------------|
G|----------------------------------------------------------------------------9--7--9--| x2
D|----------------------------------------------------------10---------------10--8-10--|
A|-----6b6.5------6b6.5------6b6.5------6b6.5------6b6.5-------10----6-8-10------------|
E|-8-8-------8--8-------8--8-------8--8-------8--8-------8--------8--------------------|


Verse:
"Thank god I've been blessed with a patient mind"
E|-------------------|
B|-------------------|
G|-------------------|
D|-------------------|
A|-------------------|
E|-8--8-8--8-8--8-8--|


Riff:
E|-------------------------------------------------|
B|-------------------------------------------------|
G|-------------------------------------------------|
D|-------------------------------------------------|
A|-------6b6.5------6b6.5------6b6.5------6b6.5----|
E|-6-8-8-------8--8-------8--8-------8--8-------8--|


Verse:
"'Cause what I wanna happen won't happen in a very long time"
Guitar 1:
E|-------------------|
B|-------------------|
G|-------------------|
D|-------------------|
A|-------------------|
E|-8--8-8--8-8--8-8--|

Guitar 2 plays this lick:
E|------------------------------------------|
B|------------------------------------------|
G|------------------8-10-10b12-10b12-10b12--|
D|-------------8h10-------------------------|
A|------------------------------------------|
E|------------------------------------------|


Alternate riff:
E|----------------------------------------|
B|----------------------------------------|
G|---------8b8.5----------------9--9\7-7--|
D|-8-10-10-------10-------------X--X\X-X--|
A|-------------------8--9--10--10-10\8-8--|
E|------------------------------8--8\6-6--|


Verse:
"Now my only company's a half full glass of wine"
E|--8---8--8---8--8---8--8----8--8--8---8--8---8---8--8--|
B|-10--10-10--10-10--10-10---10-10-10--10-10--10--10-10--|
G|-10--10-10--10-10--10-10---10-10-10--10-10--10--10-10--|
D|-10--10-10--10-10--10-10---10-10-10--10-10--10--10-10--|
A|--8---8--8---8--8---8--8----8--8--8---8--8---8---8--8--|
E|-------------------------------------------------------|


Riff:
E|-----------------------------------------------|
B|-----------------------------------------------|
G|-----------------------------------------------|
D|-----------------------------------------------|
A|-----6b6.5------6b6.5------6b6.5------6b6.5----|
E|-8-8-------8--8-------8--8-------8--8-------8--|


Quiet instrumental breakdown:
"Leave me no choice but to plot my revenge"
Guitar 1:
E|---------------------------------------------------------------------|
B|---------------------------------------------------------------------|
G|---------------------------------------------------------------------|
D|---------------------------------------------------------------------|
A|---------------------------------------------------------------------|
E|-8--8-8--8-8--8-8--8-8--8-8--8-8--8-8--8-8--8-8--8-8--8-8--8-8--8-8--|

Guitar 2 plays this little lick:
E|---------------------------------------------------------------------|
B|---------------------------------------------------------------------|
G|----------------------------8-10-10b12--8~---------------------------|
D|-----------------------8h10------------------------------------------|
A|---------------------------------------------------------------------|
E|---------------------------------------------------------------------|


"Leave me no choice but to plot my revenge,
(whispered) You leave me no choice but to plot my revenge"
Guitar 1:
E|---------------------------------------------------------------------------------|
B|---------------------------------------------------------------------------------|
G|---------------------------------------------------------------------------------|
D|---------------------------------------------------------------------------------|
A|---------------------------------------------------------------------------------|
E|-8-8--8-8--8-8--8-8--8-8--8-8--8-8--8-8--8-8--8-8--8-8--8-8--8-8--8-8--8-8--8-8--|

Guitar 2 plays these licks:
E|---------------------------------------------------------------------------------|
B|---------------------------------------------------------------------------------|
G|-3h5p3h5p3h5p3h5p3h5-p3-------------10b12----8~----------------------------------|
D|---------------------------------------------------------------------------------|
A|---------------------------------------------------------------------------------|
E|---------------------------------------------------------------------------------|


E|--8--8---8--8---8--8---8--8---8--8---8--8---8--8---8--8--|
B|-10-10--10-10--10-10--10-10--10-10--10-10--10-10--10-10--|
G|-10-10--10-10--10-10--10-10--10-10--10-10--10-10--10-10--|
D|-10-10--10-10--10-10--10-10--10-10--10-10--10-10--10-10--|
A|--8--8---8--8---8--8---8--8---8--8---8--8---8--8---8--8--|
E|---------------------------------------------------------|


Main riff:
E|-------------------------------------------------------------------------------------|
B|-------------------------------------------------------------------------------------|
G|----------------------------------------------------------------------------9--7--9--| x2
D|----------------------------------------------------------10---------------10--8-10--|
A|-----6b6.5------6b6.5------6b6.5------6b6.5------6b6.5-------10----6-8-10------------|
E|-8-8-------8--8-------8--8-------8--8-------8--8-------8--------8--------------------|


Chorus:
"It's been so long since I held your hand,
You don't know how hard it can be"
E|--------------8--------------6--|
B|-------------10--------------6--|
G|-------------10--------------7--| x3
D|---------5---10----------5---8--|
A|-----5--------8------5-------8--|
E|-3-3---3---3-----3-3---3---3-6--|

And then you play:
E|--------------8--|
B|-------------10--|
G|-------------10--|
D|---------5---10--|
A|-----5--------8--|
E|-3-3---3---3-----|


Instrumental outro:
E|-3-3--3-3--3-3--3-3---3-3-3--3-3--3--3-3--|
B|-3-3--3-3--3-3--3-3---3-3-3--3-3--3--3-3--|
G|-4-4--4-4--4-4--4-4---4-4-4--4-4--4--4-4--| x2
D|-5-5--5-5--5-5--5-5---5-5-5--5-5--5--5-5--|
A|-5-5--5-5--5-5--5-5---5-5-5--5-5--5--5-5--|
E|-3-3--3-3--3-3--3-3---3-3-3--3-3--3--3-3--|


E|--8--8---8--8---8--8---8--8--6-6--6-6--6-6--6-6--|
B|--8--8---8--8---8--8---8--8--8-8--8-8--6-6--6-6--|
G|--9--9---9--9---9--9---9--9--8-8--8-8--7-7--7-7--|
D|-10-10--10-10--10-10--10-10--8-8--8-8--8-8--8-8--|
A|-10-10--10-10--10-10--10-10--6-6--6-6--8-8--8-8--|
E|--8--8---8--8---8--8---8--8------------6-6--6-6--|

E|--8--8---8--8---8--8--3--6--6-6--6-6--6-6--6-6--|
B|--8--8---8--8---8--8--3--6--8-8--8-8--6-6--6-6--|
G|--9--9---9--9---9--9--4--7--8-8--8-8--7-7--7-7--| x3
D|-10-10--10-10--10-10--5--8--8-8--8-8--8-8--8-8--|
A|-10-10--10-10--10-10--5--8--6-6--6-6--8-8--8-8--|
E|--8--8---8--8---8--8--3--6------------6-6--6-6--|


Guitar solo 
E|------------------------------------------|
B|------------------------------------------|
G|-10b12-10b12-10b12-10b12r10--8------------|
D|-------------------------------10-8-10-8--|
A|------------------------------------------|
E|------------------------------------------|

E|---------------------------------------------|
B|---------------------------------------------|
G|-10b12-10b12-10b12-10b12r10--8---------------| x3
D|-------------------------------10-8----8-10--|
A|------------------------------------10-------|
E|---------------------------------------------|

E|-------------------------------------------|
B|-------------------------------------------|
G|-10b12-10b12-10b12-10b12r10--8-------------|
D|-------------------------------10-8-10-10--|
A|-------------------------------------------|
E|-------------------------------------------|
reproducciones 151
Acordes para:
    Composição: Kevin Parker Colaboración y revision:
    • Vanna

    0 comentarios

    mostrar más comentarios

    ¿Conseguiste tocar?

    2 tocaron 0 aún no

    ¡Graba un vídeo tocando Half Full Glass Of Wine y envianoslo!

    00:00 / 00:00
    outros vídeos desta música
    repetir qualidade Automático
    Outros vídeos desta música
    00:00 / 00:00
    Automático
    OK