Cifra Club

Every Breath You Take

The Police

Tablatura: Guitarra (guitarra)
Tom: G (con acordes en la forma de A) Afinação: D G C F A D
[Intro] A9  F#m9  D5(9)  E5(9)  A9

   A9
E|------------------------------------------|
B|------------------------------------------|
G|---------6---------------6----------------|
D|-----9-----9---9-----9-----9---9----------|
A|---7---7-----7-----7---7-----7------------|
E|-5---------------5------------------------|

   F#m9
E|------------------------------------------|
B|------------------------------------------|
G|---------2---------------2----------------|
D|-----6-----6---6-----6-----6---6----------|
A|---4---4-----4-----4---4-----4------------|
E|-2---------------2------------------------|

   D5(9)           E5(9)
E|------------------------------------------|
B|------------------------------------------|
G|-----9---7-----------11---9---------------|
D|---7---7---7---7---9----9---9---9---------|
A|-5-----------5---7------------7-----------|
E|------------------------------------------|

   A9
E|------------------------------------------|
B|------------------------------------------|
G|---------6---------------6----------------|
D|-----9-----9---9-----9-----9---9----------|
A|---7---7-----7-----7---7-----7------------|
E|-5---------------5------------------------|

[Primeira Estrofe]

Every breath you take
                F#m9
Every move you make
                     D5(9)
Every bond you break
                    E5(9)
Every step you take
                     F#m9
I'll be watching you

[Segunda Estrofe]

             A9
Every single    day
                F#m9
Every word you say
                    D5(9)
Every game you play
                     E5(9)
Every night you stay
                     A9
I'll be watching you

[Ponte]

   D5(9)           D5(7)
E|------------------------------------------|
B|------------------------------------------|
G|-----9---7-----------7---5----------------|
D|---7---7---7---7-------7-----7------------|
A|-5-----------5---5------------------------|
E|------------------------------------------|

   A9
E|------------------------------------------|
B|------------------------------------------|
G|---------6---------------6----------------|
D|-----9-----9---9-----9-----9---9----------|
A|---7---7-----7-----7---7-----7------------|
E|-5---------------5------------------------|

   B9
E|------------------------------------------|
B|------------------------------------------|
G|----------8------------------8------------|
D|-----11-----11---11-----11-----11---11----|
A|---9----9------9------9----9------9-------|
E|-7------------------7---------------------|

   E5(9)
E|------------------------------------------|
B|------------------------------------------|
G|-----11---9-----------11---9--------------|
D|---9----9---9---9---9----9---9---9--------|
A|-7------------7---7------------7----------|
E|------------------------------------------|

              D5(9)     D5(7)
Oh, can't you       see
              A9
You belong to    me
                  B9
How my poor heart aches
                    E5(9)
With every step you       take

[Terceira Estrofe]

               A9
Every move you    make
              F#m9
Every vow you      break
                     D5(9)
Every smile you fake
                      E5(9)
Every claim you stake
                     F#m9
I'll be watching you

[Interlúdio]

F5
   Since you've gone I've been lost without a trace
G5
   I dream at night I can only see your face
F5
   I look around, but it's you I can't replace
G5
   I feel so cold and I long for your embrace
F5
   I keep crying baby, baby
  A9   F#m9  D5(9)  E5(9)  F#m9
Please

( A9  F#m9  D5(9)  E5(9)  A9 )

[Ponte]

             D5(9)     D5(7)
Oh can't you       see
              A9
You belong to    me
                  B9
How my poor heart aches
                    E5(9)
With every step you       take

[Quarta Estrofe]

   A9
E|------------------------------------------|
B|------------------------------------------|
G|---------6---------------6----------------|
D|-----9-----9---9-----9-----9---9----------|
A|---7---7-----7-----7---7-----7------------|
E|-5---------------5------------------------|

   F#m9
E|------------------------------------------|
B|------------------------------------------|
G|---------2---------------2----------------|
D|-----6-----6---6-----6-----6---6----------|
A|---4---4-----4-----4---4-----4------------|
E|-2---------------2------------------------|

   D5(9)           E5(9)
E|------------------------------------------|
B|------------------------------------------|
G|-----9---7-----------11---9---------------|
D|---7---7---7---7---9----9---9---9---------|
A|-5-----------5---7------------7-----------|
E|------------------------------------------|

   F#m9
E|------------------------------------------|
B|------------------------------------------|
G|---------2---------------2----------------|
D|-----6-----6---6-----6-----6---6----------|
A|---4---4-----4-----4---4-----4------------|
E|-2---------------2------------------------|

   D5(9)           E5(9)
E|------------------------------------------|
B|------------------------------------------|
G|-----9---7-----------11---9---------------|
D|---7---7---7---7---9----9---9---9---------|
A|-5-----------5---7------------7-----------|
E|------------------------------------------|

   F#m9
E|------------------------------------------|
B|------------------------------------------|
G|---------2---------------2----------------|
D|-----6-----6---6-----6-----6---6----------|
A|---4---4-----4-----4---4-----4------------|
E|-2---------------2------------------------|

E|------------------------------------------|
B|------------------------------------------|
G|---------2---------------2----------------|
D|-----6-----6---6-----6-----6---6----------|
A|---4---4-----4-----4---4-----4------------|
E|-2---------------2------------------------|

               A9
Every move you    make
              F#m9
Every vow you      break
                     D5(9)
Every smile you fake
                      E5(9)
Every claim you stake
                     F#m9
I'll be watching you
                    D5(9)
Every move you make
                    E5(9)
Every step you take
                     F#m9
I'll be watching you
                  A9
I'll be watching you

[Final] A9  F#m  D5 

   A9
E|------------------------------------------|
B|------------------------------------------|
G|---------6---------------6----------------|
D|-----9-----9---9-----9-----9---9----------|
A|---7---7-----7-----7---7-----7------------|
E|-5---------------5------------------------|

   F#m9            D5
E|------------------------------------------|
B|------------------------------------------|
G|---------2-----------7---6----------------|
D|-----6-----6---6---7---7---7---7----------|
A|---4---4-----4---5-----------5------------|
E|-2----------------------------------------|

(Every breath you take)
(Every move you make)
(Every bond you break)
(Every step you take) I'll be watching you

(Every single day)
(Every word you say)
(Every game you play)
(Every night you stay) I'll be watching you

(Every move you make)
(Every vow you break)
(Every smile you fake)
(Every claim you stake) I'll be watching you

(Every single day)
(Every word you say)
(Every game you play)
(Every night you stay) I'll be watching you

(Every breath you take)
(Every move you make)
(Every bond you break)
(Every step you take) I'll be watching you

(Every single day)
(Every word you say)
(Every game you play)
(Every night you stay) I'll be watching you
reproducciones 1.413
Acordes para:
    Composição: Sting Colaboración y revision:
    • Vinícius Dias
    • Anto Nadal

    0 comentarios

    mostrar más comentarios

    ¿Conseguiste tocar?

    10 tocaron 0 aún no

    ¡Graba un vídeo tocando Every Breath You Take y envianoslo!

    00:00 / 00:00
    outros vídeos desta música
    repetir qualidade Automático
    Outros vídeos desta música
    00:00 / 00:00
    Automático
    Capítulos
    • Início
    • Afinação
    • Tocando a música
    • Configuração dos Efeitos
    • Acordes da Introdução e Estrofes
    • Tocando Introdução
    • Ensinando Introdução
    • Tocando Primeira e Segunda Estrofes
    • Acordes da Ponte
    • Tocando Ponte
    • Ensinando Ponte
    • Acordes do Interlúdio
    • Tocando Terceira Estrofe e Interlúdio
    • Ensinando Ritmo do Interlúdio
    • Tocando Ponte e Quarta Parte
    • Ensinando Quarta Estrofe
    • Acordes do Final
    • Tocando Final
    • Ensinando Final
    • Encerramento
    OK