Cifra Club

Aprenda

Best Of Me Acoustic

The Starting Line

Tablatura: Principal (guitarra)
tono: A
Tab By:         Mike Legacy [*]

Always loved this song. Did this by ear, see anything wrong? E-mail me, MikeTheL*.

I set this song as Intermediate because of the picking sequences, the verse picking is 
fast and very wierd when you first play it, keep going at it, you'll get it. Chords are 
easy, which makes this song comfortable and great to play!

I saw the other versions of this, and i think my verse is correct, sounds to be, more so 
their's at least.

O, and on the verse picking parts, the slides can be added or not, sounds fine either way.

I'm 99% sure this is correct, most of it that is. So many picking styles sound so 
when you play them, its almost impossible to tell without authentic tabs.

|------------------------------------|
|  ! = let ring                      |
|  ~ = check song for strum pattern  |
|      (normally means "let ring" so |
|       make sure to pay attention.) |
|  / = slide                         |
|------------------------------------|

INTRO:
Guitar 1 & 2:                Play last time
e|--0~-0~-0~-0~-0~-0~-0~-0~-|--0~-|
B|--0~-0~-0~-0~-0~-0~-0~-0~-|--0~-|
G|--1~-2~-4~-4~-2~-2~-4~-4~-|--2~-|  Play 3 Times
D|--2~-2~-4~-2~-2~-2~-2~-4~-|--2~-|
A|--2~-0~-2~-4~-0~-0~-4~-2~-|--0~-|
E|--0~----------------------|-----|


Add this before every VERSE:

Guitar 2:
    d-u-d
e|--0-0-0--|
B|--0-0-0--|
G|--1-1-1--|
D|--2-2-2--|
A|--2-2-2--|
E|--0-0-0--|

Verses:

This is the "Here we lay again..." part.

Start singing at the 8/6 part.

Guitar 1:
e|----0--0----0---0----0---0----0---0--|
B|---0--0----0---0----0---0----0---0---|
G|--9-99--9/8--88--8/6--66--6/4--44--4-|  Play 3 Times
D|-------------------------------------|
A|-------------------------------------|
E|-------------------------------------|

Guitar 2:
e|-----0---------|
B|----9------9---|
G|--11--11-11-11-| Come in on the third time.
D|---------------|
A|---------------|
E|---------------|

This is "to meet a familiar voice.."

Guitar 1 & 2:
e|--0~-|
B|--0~-|
G|--2~-|
D|--2~-|
A|--0~-|
E|-----|

Guitar 2 (ending of "to meet a familiar voice verse") :
e|--0~-|
B|--0~-|
G|--1~-|
D|--2~-|
A|--2~-|
E|--0~-|

Guitar 1:
e|----0---0----0---0----0---0----0---0--|
B|---0---0----0---0----0---0----0---0---|
G|--9--99--9/8--88--8/6--66--6/4--44--4-|  Play Three Times
D|--------------------------------------|
A|--------------------------------------|
E|--------------------------------------|

Guitar 2:
e|-----0---------|
B|----9------9---|
G|--11--11-11-11-|  Come in third time guitar 1 starts.
D|---------------|
A|---------------|
E|---------------|

This is the "And missing each other too.." part

Guitar 1 & 2:
e|--0~-|
B|--0~-|
G|--2~-|
D|--2~-|
A|--0~-|
E|-----|

Again Guitar 2 ends on:
e|--0~-|
B|--0~-|
G|--1~-|
D|--2~-|
A|--2~-|
E|--0~-|

Guitar 1:
e|----0--0----0---0----0---0----0---0--|
B|---0--0----0---0----0---0----0---0---|
G|--9-99--9/8--88--8/6--66--6/4--44--4-|  Play Three Times
D|-------------------------------------|
A|-------------------------------------|
E|-------------------------------------|

Guitar 2:
e|--0~-|
B|--0~-|
G|--1~-|
D|--2~-|
A|--2~-|
E|--0~-|


this is sort of the "Outro" im adding the lyrics along, because it's a lot of different 
sequences. Pretty simple picking though.

Guitar 1 & 2:   (Again ! means to "Let Ring")

    We turn our music down, and we whisper. Were sitting on the ground,
e|--0!-----------------------------------------------------------------|
B|--0!-----------------------------------------------------------------|
G|--2!------------------------------2---------------------4------------|
D|--4!--------------------------2---------------------4----------------|
A|--4!----------------------0---------------------2--------------------|
E|---------------------------------------------------------------------|

    and we whisper.
e|-------------------|
B|-------------------|
G|----------2--------|
D|------2------------|
A|--0----------------|
E|-------------------|


That ends the guitar playing together. They then split apart and guitar one plays the 
thing you just heard, but guitar 2 plays this:

Guitar 2:

    We Turn our music down, we're sitting on the ground
e|--------0------------------------0--------------------|
B|-----0-----0------0-----------0-----0-----0-----0-----|
G|--9-----------9------------9-----------9-----9--------|
D|------------------------------------------------------|
A|------------------------------------------------------|
E|------------------------------------------------------|

    And next time im around, we  will  kiss  girl ..................
e|--------0------------------------0--------------------|
B|-----0-----0------0-----------0-----0-----0-----0-----|
G|--9-----------9------------9-----------9-----9--------|
D|------------------------------------------------------|
A|------------------------------------------------------|
E|------------------------------------------------------|

                             we  will  kiss  girl...
e|--------0------------------------0--------------0-----|
B|-----0-----0------0-----------0-----0-----0-----0-----|
G|--9-----------9------------9-----------9-----9--------|
D|------------------------------------------------------|
A|------------------------------------------------------|
E|------------------------------------------------------|


remember, guitar 1 was playing the other part the whole time, guitar 2 isn't a solo 
there, listen to the song, it sounds right, Happy Playing!


Thanks guys! E-mail me on any corrections, THANKS!

-Mike Legacy
36 reproducciones
    • ½ Tono
    • A
    • Bb
    • B
    • C
    • Db
    • D
    • Eb
    • E
    • F
    • F#
    • G
    • Ab
  • Adicionar à lista

    0 comentarios

    Ver todos os comentários

    ¿Conseguiste tocar?

    0 Tocaram 0 Ainda não

    Grave um vídeo tocando Best Of Me Acoustic e nos envie!

    00:00 / 00:00
    outros vídeos desta música
    repetir qualidade Automático
    Outros vídeos desta música
    00:00 / 00:00
    Automático
    OK