Cifra Club

The Best Of Me

The Starting Line

Cifrado: Principal (guitarra y guitarra eléctrica)
Selo Cifra Club: esta cifra foi revisada para atender aos critérios oficiais da nossa Equipe de Qualidade.
tono: D
Intro 
E|--------------------------------------------------- 
B|--------------------------------------------------- 
G|---1-1--2--2-2--4-4--6--6-6--2--2--6--6-6--4--4-4-- 
D|---2-2--2--2-2--4-4--4--4-4--2?-2--4--4-4--4--4-4-- 
A|---2-2--0--0-0--2-2--4--4-4--0--0--4--4-4--2--2-2-- 
E|---0-0--------------------------------------------- 
       2x, termina com A 
 
Solo 1 
E|------------------------------------------------------------- 
B|------------------------------------------------------------- 
G|------------------------------------------------------------- 
D|---6-9-4--2--2-4-2-2--2-2-2------2-2-2-1-2-1-2-----2~--2-2-2- 
A|----------------------------4-2------------------------0-0-0- 
E|------------------------------------------------------------- 
 
Solo 2 
E|-------0-----0-----0-----0------------- 
B|---5-5---4-4---2-2---0-0--------------- 
G|--------------------------------------- 
D|--------------------------------------- 
A|--------------------------------------- 
E|--------------------------------------- 
 
Verso
E|------------ 
B|------------ 
G|------------ 
D|---2-2-2---- 
A|---2-2-2---- 
E|---0-0-0---- 
     X X X 
        8x 
       
Parte 2 
E|--------------------------------------- 
B|--------------------------------------- 
G|---2-2-2-2-2-2-2-2-2-2-2-2-2-2--------- 
D|---2-2-2-2-2-2-2-2-2-2-2-2-2-2--------- 
A|---0-0-0-0-0-0-0-0-0-0-0-0-0-0--------- 
E|--------------------------------------- 
 
Parte 1, parte 2, parte 1 
Pré-Refrão
E|----------------------------------------------- 
B|----------------------------------------------- 
G|---------------------2-2-2-2-2-2-2-2-2--------- 
D|---2-2-2-2-2-2-2-2-2-2-2-2-2-2-2-2-2-2--------- 
A|---2-2-2-2-2-2-2-2-2-0-0-0-0-0-0-0-0-0--------- 
E|---0-0-0-0-0-0-0-0-0--------------------------- 
                  
 
E|----------------------------------------------- 
B|----------------------------------------------- 
G|---------------------2-2-2-2-2-2-2-2-2--------- 
D|---4-4-4-4-4-4-4-4-4-2-2-2-2-2-2-2-2-2--------- 
A|---4-4-4-4-4-4-4-4-4-0-0-0-0-0-0-0-0-0--------- 
E|---2-2-2-2-2-2-2-2-2--------------------------- 
 
 
Refrão 
E|----------------------------------------------- 
B|----------------------------------------------- 
G|--------2--2-2--4-4--6--6-6--2--2-2--6-6--4-4-- 
D|---2-2--2--2-2--4-4--6--6-6--2--2-2--6-6--4-4-- 
A|---2-2--0--0-0--2-2--4--4-4--0--0-0--4-4--2-2-- 
E|---0-0----------------------------------------- 
 
2x, A 
              
Verso
 
Pré-refrão 
 
Refrão 
 
Solo 1 1x

Solo 2
 
E|---------------------------------- 
B|---------------------------------- 
G|-----4-------4-------4-------4---- 
D|---2---2---2---2---2---2---2---2-- 
A|-0-------0-------4-------4-------- 
E|---------------------------------- 

 
E|------------------------------ 
B|--0-0-0-0-0-0-0-0-0-0-0-0----- 
G|--4-4-4-4-4-4-4-4-4-4-4-4----- 
D|--4-4-4-4-4-4-4-4-4-4-4-4----- 
A|--2-2-2-2-2-2-2-2-2-2-2-2----- 
E|--X-X-X-X-X-X-X-X-X-X-X-X----- 
Otros videos de esta canción
    73 exhibiciones
      • ½ Tono
      • A
      • Bb
      • B
      • C
      • Db
      • D
      • Eb
      • E
      • F
      • F#
      • G
      • Ab
    • Agregar a la lista

    Afinação da cifra

    Afinador online

      Ops (: Contenido disponible solo en portugués.
      OK