Cifra Club

Letting Go Of Tonight

Underoath

Tab de bajo: Principal
Já pensou em usar uma coleção de roupas do Cifra Club? Responda as perguntas abaixo e nos ajude nessa missão! →
 Tabbed By : dvanwyk
 e-mail: *
 This song is off Changing of Times in 2002, during the Dallas Taylor days.
 Hope you guys * rate this tab, thank you.
 Tuning:Drop D
 Verse x4 (Start at 0.04)
G|------------------------------------|
D|------------------------------------|
A|-----------------11111111-33333333--|
D|0000000000000000--------------------|

 Chorus
G|--------------------------------------------------------------------------|
D|--------------------------------------------------------------------------|
A|--------------------------------------------------------------------------|
D|8-8-8--8--8-8-8----8-8-8--8--8-8-8----8-8-8--8--8-8-8----8-8-8--8--8-8-8--|

G|------------------------------------------|
D|------------------------------------------|
A|------------------------------------------|
D|8888--8-8-8--8--8-8-8----8-8-8--8--8-8-8--|

 Bridge
G|-----------------------------------------------------------|
D|--------------------------------------------------7--5--3--|
A|333333333333333-5555555555555555-8888888888888888----------|
D|-----------------------------------------------------------|

G|------------------------------------------------------------|
D|------------------------------------------------------------|
A|3333333333333333-5555555555555555-1111111111111111----------|
D|---------------------------------------------------7--5--3--|

G|------------------------------------------------------------------|
D|---------------------------------------------------------7--5--3--|
A|3-3-3~--5-5-5~--8-8-8~------------3-3-3~--5-5-5~--1-1-1~----------|
D|-----------------------7--5--3------------------------------------|

 x4
G|---------------------------------------------------------------------------------------|
D|---------------------------------------------------------------------------------------|
A|---------888888-3~-2~------------------------------------------------------------------|
D|77777777-------------------------------------------------------------------------------|

 Chorus
G|--------------------------------------------------------------------------|
D|--------------------------------------------------------------------------|
A|--------------------------------------------------------------------------|
D|8-8-8--8--8-8-8----8-8-8--8--8-8-8----8-8-8--8--8-8-8----8-8-8--8--8-8-8--|

G|------------------------------------------|
D|------------------------------------------|
A|------------------------------------------|
D|8888--8-8-8--8--8-8-8----8-8-8--8--8-8-8--|

| /  slide up
| \  slide down
| h  hammer-on
| p  pull-off
| ~  vibrato
| +  harmonic
| x  Mute note
===============================================================================
Composición de Underøath
12 vistas

0 comentarios

Ver todos los comentarios

¿Lograste tocar?

0 Tocaron 0 Aún no

¡Graba un video tocando Letting Go Of Tonight y envíanoslo!

00:00 / 00:00
Outros vídeos desta música
Repetir Calidad Automático
Outros vídeos desta música
00:00 / 00:00
Automático
OK