Cifra Club

Noche de paz

Villancicos

Cifrado: Versão 2 (guitarra y guitarra eléctrica)
Acompaña nuestras novedades de Cifra Club en español.
¡Sigue nuestro perfil en Instagram!
tono: G
E|-------0-------0-----5-5-2-3-3---0-0-3-2-0-|
B|-----3---3-0-3---3-0-5-5-3-3-3-3-1-1-1-----|
G|----0------0-0-----0-5-5-2-4-4-0-0-0-0-----|
D|---0-------0-0-----0-0---0-0---0-----2-----|
A|---------------------------------3---------|
E|-3---------3-3-----3-----------3-----------|

E|------------0-----0-0-3-2-0---0------|
B|------3---3---3-0-1-1-1-----3---3-0--|
G|------0--0------0-0-0-0-----0-----0--|
D|------0-0-------0-----2-----0-----0--|
A|------------------3------------------|
E|----------------3-----------------3--|

E|-5-5-8------3-7-3-------------------|
B|-5-5-7-10-7-3-8-0-3-0-3-1-----------|
G|-5-5-7------4-7-0-----2---2-0-------|
D|-0---0------0-0-0-----0-----0-------|
A|------------------------------------|
E|----------------------2-----3-------|

(TOC  SE D PITE HASTA TERE NAR A  CANCION)


Noche de Paz(ACORDES)

G             G
Noche de paz, noche de amor;
D7             G
todo duerme en derredor,
C            G
sólo velan murando la faz
C               G
de su niño en angélica paz,
D7                G
José y María en Belén,
G        D7       G
José y María en Belén.

G             G
Noche de Paz, noche de amor;
D7            G
de Dios Hijo, luz de amor,
C                  G
fulgor irradia de su santa faz
C                G
con la gracia de la redención
D7                 G
al nacer Cristo el Señor,
G        D7          G
al nacer Cristo el Señor.

G             G
Noche de Paz, noche de amor;
D7                G
en los campos, al pastor,
C                 G
coros celestes vienen a anunciar
C                   G
salud y gracias con nuevo cantar,
D7                  G
a nuestro buen Redentor,
G         D7        G
a nuestro buen Redentor.

G             G
Noche de Paz, noche de amor;
D7                G
los pastores, con temor,
C                     G
escuchan glorias del cielo llegar,
C                    G
cantan los ángeles: ¡Aleluya,
D7                G
nace Cristo el Salvador,
G          D7        G
nace Cristo el Savador!

G             G
Noche de Paz, noche de amor;
D7             G
todo duerme en derredor
C                        G
y entre los astros que esparcen su luz,
C                   G
viene anunciando al niño Jesús,
D7                   G
radiante estrella de paz,
G          D7        G
radiante estrella de paz.
Composición de Franz Gruber
17 vistas
    • ½ Tono
    • A
    • Bb
    • B
    • C
    • Db
    • D
    • Eb
    • E
    • F
    • F#
    • G
    • Ab
  • Agregar a la lista

    0 comentarios

    Ver todos los comentarios

    ¿Lograste tocar?

    0 Tocaron 0 Aún no

    ¡Graba un video tocando Noche de paz y envíanoslo!

    00:00 / 00:00
    Outros vídeos desta música
    Repetir Calidad Automático
    Outros vídeos desta música
    00:00 / 00:00
    Automático
    OK