Cifra Club

Noche de paz

Villancicos

Cifrado: Versão 4 (guitarra y guitarra eléctrica)
Acompaña nuestras novedades de Cifra Club en español.
¡Sigue nuestro perfil en Instagram!
tono: E
B||---------------------------|--3--3--0--0--1--1-----|
G||·--0--2--0-----0--2--0-----|--------------------0--|
D||·-----------2-----------2--|-----------------------|
A||---------------------------|-----------------------|
E||---------------------------|-----------------------|

e||---------------------------------|--------------------------------|
B||------------1--0-----------------|-----------1--0-----------------|
G||---2--2--2--------2--0--2--0-----|--2--2--2--------2--0--2--0-----|
D||------------------------------2--|-----------------------------2--|
A||---------------------------------|--------------------------------|
E||---------------------------------|--------------------------------|

e||------------1--0--------0--|-----------|---------------||
B||---3--3--3--------0--1-----|--1--------|---------------||
G||---------------------------|-----0-----|--0-----------·||
D||---------------------------|--------2--|-----3--0-----·||
A||---------------------------|-----------|-----------3---||
E||---------------------------|-----------|---------------||
Composición de Franz Gruber
1 vistas
    • ½ Tono
    • A
    • Bb
    • B
    • C
    • Db
    • D
    • Eb
    • E
    • F
    • F#
    • G
    • Ab
  • Agregar a la lista

    0 comentarios

    Ver todos los comentarios

    ¿Lograste tocar?

    0 Tocaron 0 Aún no

    ¡Graba un video tocando Noche de paz y envíanoslo!

    00:00 / 00:00
    Outros vídeos desta música
    Repetir Calidad Automático
    Outros vídeos desta música
    00:00 / 00:00
    Automático
    OK