Cifra Club

Pictures of Girls

Wallows

Cifrado: Principal (guitarra y guitarra eléctrica)
tono: A
[Intro]

E|---------|-----------|---------|-----------|---------|-----------|---------|-----------|
B|---------|-----------|---------|-----------|---------|-----------|---------|-----------|
G|---------|-----------|---------|-----------|---------|-----------|---------|-----------|
D|-3-3-1-1-|-3---------|-3-3-1-1-|-3---------|-3-3-1-1-|-3---------|-3-3-1-1-|-3---------|
A|---------|---1-1-1-1-|---------|---4-4-4-4-|---------|---1-1-1-1-|---------|---4-4-4-4-|
E|---------|-----------|---------|-----------|---------|-----------|---------|-----------|

E|-18-|-(18)-16-14-|-13-|-14-16-|-18-16-14-|-13-11-9-13-|-13-13-11-9-|-6-9-|
B|----|------------|----|-------|----------|------------|------------|-----|
G|----|------------|----|-------|----------|------------|------------|-----|
D|----|------------|----|-------|----------|------------|------------|-----|
A|----|------------|----|-------|----------|------------|------------|-----|
E|----|------------|----|-------|----------|------------|------------|-----|

C# A#m        G# F#
I     see the end
      C# A#m    G#     F#
You wait    for nothing
C#            A#m
You and I, we grew up in the suburbs
G#                   F#
Now you're gone, the city's done a number
C#               A#m              G#    F#
And it's not the same without you around

E|---------|-----------|---------|-----------|---------|-----------|---------|-----------|
B|---------|-----------|---------|-----------|---------|-----------|---------|-----------|
G|---------|-----------|---------|-----------|---------|-----------|---------|-----------|
D|-3-3-1-1-|-3---------|-3-3-1-1-|-3---------|-3-3-1-1-|-3---------|-3-3-1-1-|-3---------|
A|---------|---1-1-1-1-|---------|---4-4-4-4-|---------|---1-1-1-1-|---------|---4-4-4-4-|
E|---------|-----------|---------|-----------|---------|-----------|---------|-----------|

E|-1-| e|---2-1---2-1-|---2-1---2-1-|---2-1---2-1-|---2-1---2-1-|
B|---| B|-2-----2-----|-2-----2-----|-2-----2-----|-2-----2-----|
G|---| G|-------------|-------------|-------------|-------------|
D|---| D|-------------|-------------|-------------|-------------|
A|---| A|-------------|-------------|-------------|-------------|
E|---| E|-------------|-------------|-------------|-------------|

E|-4-| e|---6-4---6-4-|---6-4---6-4-|---6-4---6-4-|--6-4---6-4-|
B|---| B|-6-----6-----|-6-----6-----|-6-----6-----|-6-----6----|
G|---| G|-------------|-------------|-------------|------------|
D|---| A|-------------|-------------|-------------|------------|
A|---| A|-------------|-------------|-------------|------------|
E|---| E|-------------|-------------|-------------|------------|

C    Am      G   F         C   Am   G      F
I    see you there   still shy but smiling

C             Am       
Now I find it hard to remember

G                  F
All the times I've tried to forget her

C            Am               G    F
I am hanging on for something real
                  A#m       G#      F#
Cause pictures of girls are not for me
    F#
You see

E|---------|-----------|---------|-----------|---------|-----------|---------|-----------|
B|---------|-----------|---------|-----------|---------|-----------|---------|-----------|
G|---------|-----------|---------|-----------|---------|-----------|---------|-----------|
D|-3-3-1-1-|-3---------|-3-3-1-1-|-3---------|-3-3-1-1-|-3---------|-3-3-1-1-|-3---------|
A|---------|---1-1-1-1-|---------|---4-4-4-4-|---------|---1-1-1-1-|---------|---4-4-4-4-|
E|---------|-----------|---------|-----------|---------|-----------|---------|-----------|

E|-18-|-(18)-16-14-|-13-|-14-16-|-18-16-14-|-13-11-9-13-|-13-13-11-9-|-6-9-|
B|----|------------|----|-------|----------|------------|------------|-----|
G|----|------------|----|-------|----------|------------|------------|-----|
D|----|------------|----|-------|----------|------------|------------|-----|
A|----|------------|----|-------|----------|------------|------------|-----|
E|----|------------|----|-------|----------|------------|------------|-----|

                                    C#
E|---------|-----|---------|-----|---------|-----|---------|-----|
B|---------|-----|---------|-----|---------|-----|---------|-----|
G|---------|-----|---------|-----|---------|-----|---------|-----|
D|---------|---3-|---------|---3-|---------|---3-|---------|-3---|
A|-------4-|-6---|-------4-|-6---|-------4-|-6---|-------4-|---6-|
E|-4-4-6---|-----|-4-4-6---|-----|-2-2-6---|-----|-2-2-6---|-----|
      C#                            F#
E|---------|-----|---------|-----|---------|-----|---------|-----|
B|---------|-----|---------|-----|---------|-----|---------|-----|
G|---------|-----|---------|-----|---------|-----|---------|-----|
D|---------|---3-|---------|---3-|---------|---3-|---------|---3-|
A|-------4-|-6---|-------4-|-6---|-------4-|-6---|-------4-|-6---|
E|-4-4-6---|-----|-4-4-6---|-----|-2-2-6---|-----|-2-2-6---|-----|
    C#                              A#m
E|---------|-----|---------|-----|---------|-----|---------|-----|
B|---------|-----|---------|-----|---------|-----|---------|-----|
G|---------|-----|---------|-----|---------|-----|---------|-----|
D|---------|---3-|---------|---3-|---------|---3-|---------|-3---|
A|-------4-|-6---|-------4-|-6---|-------4-|-6---|-------4-|---6-|
E|-4-4-6---|-----|-4-4-6---|-----|-2-2-6---|-----|-2-2-6---|-----|

C#                 Am
You should be down in Hollywood

G                   F
(You should be down in Hollywood)

C                    Am
  You should be down in Hollywood

G                   F
(You should be down in Hollywood)

C                  Am
You should be down in Hollywood

G                   F
(You should be down in Hollywood)
C                  Am
You should be down in Hollywood
G                   F
(You should be down in Hollywood)

E|-18-|-(18)-16-14-|-13-|-14-16-|-18-16-14-|-13-11-9-13-|-13-13-11-9-|-6-9-|
B|----|------------|----|-------|----------|------------|------------|-----|
G|----|------------|----|-------|----------|------------|------------|-----|
D|----|------------|----|-------|----------|------------|------------|-----|
A|----|------------|----|-------|----------|------------|------------|-----|
E|----|------------|----|-------|----------|------------|------------|-----|

E|---------|-----------|---------|-----------|---------|-----------|---------|-----------|
B|---------|-----------|---------|-----------|---------|-----------|---------|-----------|
G|---------|-----------|---------|-----------|---------|-----------|---------|-----------|
D|-3-3-1-1-|-3---------|-3-3-1-1-|-3---------|-3-3-1-1-|-3---------|-3-3-1-1-|-3---------|
A|---------|---1-1-1-1-|---------|---4-4-4-4-|---------|---1-1-1-1-|---------|---4-4-4-4-|
E|---------|-----------|---------|-----------|---------|-----------|---------|-----------|

C#                      A#m
  You should be down in Hollywood
     G#                F#
(You should be down in Hollywood)
C#                      A#m
  You should be down in Hollywood
     G#                F#
(You should be down in Hollywood)
C#                      A#m
  You should be down in Hollywood
     G#                F#
(You should be down in Hollywood)
C#                      A#m
  You should be down in Hollywood
     G#                F#
(You should be down in Hollywood)

[Next two sections are played together, not in sequence]

E|-1-| e|---2-1---2-1-|---2-1---2-1-|---2-1---2-1-|---2-1---2-1-|
B|---| B|-2-----2-----|-2-----2-----|-2-----2-----|-2-----2-----|
G|---| G|-------------|-------------|-------------|-------------|
D|---| D|-------------|-------------|-------------|-------------|
A|---| A|-------------|-------------|-------------|-------------|
E|---| E|-------------|-------------|-------------|-------------|

E|---------|-----|---------|-----|---------|-----|---------|-----|
B|---------|-----|---------|-----|---------|-----|---------|-----|
G|---------|-----|---------|-----|---------|-----|---------|-----|
D|---------|---3-|---------|---3-|---------|---3-|---------|-3---|
A|-------4-|-6---|-------4-|-6---|-------4-|-6---|-------4-|---6-|
E|-4-4-6---|-----|-4-4-6---|-----|-4-4-6---|-----|-4-4-6---|-----|
Composición de Braeden Lemasters / Cole Preston / Dylan Minnette
Colaboración y revisión:
  • Kaline Reis
  • Victor Silva
323 vistas
    • ½ Tono
    • A
    • Bb
    • B
    • C
    • Db
    • D
    • Eb
    • E
    • F
    • F#
    • G
    • Ab
  • Agregar a la lista

    0 comentarios

    Ver todos los comentarios

    ¿Lograste tocar?

    4 Tocaron 0 Aún no

    ¡Graba un video tocando Pictures of Girls y envíanoslo!

    00:00 / 00:00
    Outros vídeos desta música
    Repetir Calidad Automático
    Outros vídeos desta música
    00:00 / 00:00
    Automático
    OK