Cifra Club

Remember When

Wallows

Cifrado: Principal (guitarra y guitarra eléctrica)
tono: G
[Intro]
 
E|-------2-3-2-1-2--------2-3-2-1-2-7-------|
B|---0-3--------------0-3-------------------|
G|-0----------------0-----------------------|
D|------------------------------------------|
A|------------------------------------------|
E|------------------------------------------|
 
E|------------------------------------------|
B|------------------------------------------|
G|------------------------------------------|
D|-4-2-0-------0-2-4-2-0-------5--4-4-2-----|
A|--------2--2----------------2-------------|
E|------------------------------------------|

G                         G  Bm
  Thought I saw your shadow under the door
     Bm   A                       A  G
Just a trick of the light I've seen before
                        G  Bm
I can never tell what's real anymore
   Bm  A
Anymore, anymore
G                      G  Bm
  I remember when we ran from the pool
      Bm   A              A  G
All the decorations up in your room
                           G  Bm
And I couldn't find the right words to use
      Bm  A
But I knew that you knew
  G
It seems so long, it seems so long
 Bm               A
The moments that stay, they turn out all wrong
 G              Bm   A
When I look around, you're gone
 G    Bm     A
Oh, oh, oh-oh, oh-oh
G     Bm    A
Oh, oh, oh-oh, oh-oh
G          Bm
All the places that we turn to
G         A
All the faces that remind you
G                                  Bm      A
I can still see you at the place out there when I close my eyes
G                      Bm      A
Do you remember when we felt like the only two alive?
G                             Bm      A
Don't let me be one of the people at sea, get lost, nomads
G                            Bm   A
Would you rewind, do it all over again? Give it a chance
 G    Bm     A
Oh, oh, oh-oh, oh-oh
G     Bm    A
Oh, oh, oh-oh, oh-oh
G     Bm    A
Oh, oh, oh-oh, oh-oh
G     Bm
Oh, oh, oh-oh, oh-oh
Composición de Braeden Lemasters / Cole Preston / Dylan Minnette
Colaboración y revisión:
  • Duda theduda
229 vistas
    • ½ Tono
    • A
    • Bb
    • B
    • C
    • Db
    • D
    • Eb
    • E
    • F
    • F#
    • G
    • Ab
  • Agregar a la lista

    0 comentarios

    Ver todos los comentarios

    ¿Lograste tocar?

    2 Tocaron 0 Aún no

    ¡Graba un video tocando Remember When y envíanoslo!

    00:00 / 00:00
    Outros vídeos desta música
    Repetir Calidad Automático
    Outros vídeos desta música
    00:00 / 00:00
    Automático
    OK