Cifra Club

Lord Of The Thighs

Aerosmith

Cifrado: Principal (guitarra y guitarra eléctrica)
tono: Eb
AEROSMITH - LORD OF THE THIGHS
Intro:
   Bb                            Cm w/ guitar distortion
E|--------------------------------------------|
B|------------------------4/6-----9/—8------------|
G|------------------10—8------------------------|
D|----------------------------------------------|
A|----------------------------------------------|
E|-8/8/8/8/8/8/8/8---------------------------------------------|

E|---------------------------------------------|
B|-4/6-4/6-------------------------------------------|
G|-----------------------------------------------|
D|------------------------------------------------|
A|--------------6----------6------------------------|
E|------------------8/6---------8/6----------------------|
                        F w/wah wah distortion
E|------------------------1--------------------------|
B|------------------------1--------------------------|
G|------3-----------------2---------------------------|
D|-3/5------5/3-----------3--------------------------------|
A|-----------------5/3----3-----------------------------|
E|----------------------3—1--------------------------|

Bb                Ab    G         F           
down to who knows who, just to socialize
Bb                  Ab    G                  F
I'm waiting for my girls, when you caught my eyes
Bb        Eb             Cm
you got no way to make a man
honey you got to understand
Ab                     Gm        Fm
I'm your man, child, lord of the thighs!

E|--------------------------------------------------|
B|--------------------------------------------------|
G|--------------------------------------------------|
D|--------------------------------------------------|
A|----------6----------------------------------------|
E|-8/8/8/8/----8/6/8---------------------------------------------|

Bb                          Ab          G            F
well, well, lordy my God, what do we got here
Bb                  Ab            G                 F
she's flashin' 'cross the floor, make it perfectly clear
Bb          Eb                 Cm   
you're the bait and you're the hook
someone bound to take a look


Ab                     Gm         Fm
I'm your man, child, lord of the thighs!
E|--------------------------------------------------|
B|--------------------------------------------------|
G|--------------------------------------------------|
D|--------------------------------------------------|
A|--------------------------------------------------|
E|-8/8/8/8/8/---------------------------------------|

E|--------------------8------------------------------|
B|--------6/4-----11/--------------------------------|
G|-8/5----------------------------------------------|
D|--------------------------------------------------|
A|--------------------------------------------------|
E|-------------------------------------------------|

Bb           Eb5            Cm
you must've come here to find it
Bb           Eb5              Cm
you've got the look in your eyes
Bb            Eb5           Cm
although you really don't mind it
Bb5         Eb5      C5   G5
I am the lord of your thighs!
   Cm
E|--------------------------------------------------|
B|--------------------------------------------------|
G|--------------------------------------------------|
D|--------------------------------------------------|
A|--------------------------------------------------|
E|-8/8/8/8/8/---------------------------------------|

E|--------11/13--14-15-16-18-11------------------------|
B|-11/13---------14-14-14--------11/8------------------|
G|--------------------------------------10/8—10--------|
D|------------------------------------------------10---|
A|-----------------------------------------------------|
E|----------------------------------------------------|

Bb           Eb5            Cm
you must've come here to find it
Bb           Eb5              Cm
you've got the look in your eyes
Bb            Eb5           Cm
although you really don't mind it
Bb5         Eb5      C5   G5
I am the lord of your thighs!

  Cm            Bb        Fm 
E|------------------------------------------|
B|-------------------------------------------|
G|--------------------------------------------|
D|--------------------------------------------|
A|-6------------------------------------------|
E|--------8/6/6/6/8/6/8-----------------------|
Composición de Steven Tyler
Colaboración y revisión:
  • eduardo martins
121 vistas
    • ½ Tono
    • A
    • Bb
    • B
    • C
    • Db
    • D
    • Eb
    • E
    • F
    • F#
    • G
    • Ab
  • Agregar a la lista

    0 comentarios

    Ver todos los comentarios

    ¿Lograste tocar?

    0 Tocaron 0 Aún no

    ¡Graba un video tocando Lord Of The Thighs y envíanoslo!

    00:00 / 00:00
    Otros videos de esta canción
    Repetir Calidad Automático
    Otros videos de esta canción
    00:00 / 00:00
    Automático
    OK