Cifra Club

Aprenda

Dirty Little Secret Acoustic

The All-American Rejects

Tablatura: Principal (guitarra)
tono: Bb (con acordes en la forma de G) Capotraste na 3ª casa
Tuning : Standard

You can use capo 3 if you want, they didn't use any capo
when they played it live. They only used it in the recorded version.

Intro
e|----3--3------3--3---3-3-3-3-3-3------3--3------3--3---3-3-3-3-3-3-----|
B|----3--3------3--3---3-3-3-3-3-3------3--3------3--3---3-3-3-3-3-3-----|
G|----0--0------0--0---0-0-0-0-0-0------0--0------0--0---0-0-0-0-0-0-----|
D|----0--0------0--0---3-3-2-3-2-0------0--0------0--0---3-3-2-3-2-0-----|
A|----2--2------2--2---3-3-3-3-3-2------2--2------2--2---3-3-3-3-3-2-----|
E|-3--3--3---3--3--3-----------------3--3--3---3--3--3-------------------|

e|----3--3------3--3---3-3-3-3-3-3--------3--3------3--3---3-3-3-3-3-3---|
B|----3--3------3--3---3-3-3-3-3-3--------3--3------3--3---3-3-3-3-3-3---|
G|----0--0------0--0---0-0-0-0-0-0--------0--0------0--0---0-0-0-0-0-0---|
D|----0--0------0--0---3-3-2-3-2-0--------0--0------0--0---3-3-2-3-2-0---|
A|----2--2------2--2---3-3-3-3-3-2--------2--2------2--2---3-3-3-3-3-2---|
E|-3--3--3---3--3--3-------------------3--3--3---3--3--3-----------------|

e|--3-3-3-3-3-3--|
B|--3-3-3-3-3-3--|
G|--0-0-0-0-0-0--|
D|--3-3-2-3-2-0--|
A|--3-3-3-3-3-2--|
E|---------------|

Verse
         Let me know that I've done wrong    When I've known this all along
e|----3-3--3-3-3---2--2-2--2-2-2--------0--0-0--0-0-0---0--0-0--0-0-0-----|
B|----3-3--3-3-3---3--3-3--3-3-3--------0--0-0--0-0-0---1--1-1--1-1-1-----|
G|----0-0--0-0-0---2--2-2--2-2-2--------0--0-0--0-0-0---0--0-0--0-0-0-----|
D|----0-0--0-0-0---0--0-0--0-0-0--------2--2-2--2-2-2---2--2-2--2-2-2-----|
A|----2-2--2-2-2------------------------2--2-2--2-2-2---3--3-3--3-3-3-----|
E|-3--3-3--3-3-3------------------------0--0-0--0-0-0---------------------|

         I  go  around  a  time  or  two     Just to waste my time with you
e|----3-3--3-3-3---2--2-2--2-2-2-------0--0-0--0-0-0---0--0-0--0-0-0-----|
B|----3-3--3-3-3---3--3-3--3-3-3-------0--0-0--0-0-0---1--1-1--1-1-1-----|
G|----0-0--0-0-0---2--2-2--2-2-2-------0--0-0--0-0-0---0--0-0--0-0-0-----|
D|----0-0--0-0-0---0--0-0--0-0-0-------2--2-2--2-2-2---2--2-2--2-2-2-----|
A|----2-2--2-2-2-----------------------2--2-2--2-2-2---3--3-3--3-3-3-----|
E|-3--3-3--3-3-3-----------------------0--0-0--0-0-0---------------------|

Pre-chorus
    Tell me all that you've thrown away   Find out games you don't wanna play
e|-0---0-0--0-0-0---0---0-0--0-0-0------0---0-0--0-0-0---0---0-0--0-0-0---|
B|-1---1-1--1-1-1---1---1-1--1-1-1------0---0-0--0-0-0---0---0-0--0-0-0---|
G|-0---0-0--0-0-0---0---0-0--0-0-0------0---0-0--0-0-0---0---0-0--0-0-0---|
D|-2---2-2--2-2-2---2---2-2--2-2-2------2---2-2--2-2-2---2---2-2--2-2-2---|
A|-0---0-0--0-0-0---0---0-0--0-0-0------2---2-2--2-2-2---2---2-2--2-2-2---|
E|--------------------------------------0---0-0--0-0-0---0---0-0--0-0-0---|

       You  are  the  only  one  that  needs  to  knowwwwwwwwww
e|-0---0-0--0-0-0---0---0-0--0-0-0-----2---2---2-2-2---3--2--0--2-2-2----|
B|-1---1-1--1-1-1---1---1-1--1-1-1-----3---3---3-3-3---3--3--3--3-3-3----|
G|-0---0-0--0-0-0---0---0-0--0-0-0-----2---2---2-2-2---2--2--2--2-2-2----|
D|-2---2-2--2-2-2---2---2-2--2-2-2-----0---0---0-0-0---0--0--0--0-0-0----|
A|-3---3-3--3-3-3---3---3-3--3-3-3---------------------------------------|
E|-----------------------------------------------------------------------|

Chorus
      I'll keep you my dirty little secret (dirty little secret) Don't tell
e|----3-3--3--3-3-3--3--3-3--3--3-3-3---3--3-3--3--3-3-3--2--2-2--2--3-3-3---|
B|----3-3--3--3-3-3--3--3-3--3--3-3-3---3--3-3--3--3-3-3--3--3-3--3--3-3-3---|
G|----0-0--0--0-0-0--0--0-0--0--0-0-0---0--0-0--0--0-0-0--2--2-2--2--2-2-2---|
D|----0-0--0--0-0-0--2--2-2--2--2-2-2---2--2-2--2--2-2-2--0--0-0--0--0-0-0---|
A|----2-2--2--2-2-2--3--3-3--3--3-3-3---2--2-2--2--2-2-2--0--0-0--0--0-0-0---|
E|-3--3-3--3--3-3-3---------------------0--0-0--0--0-0-0--2--2-2--2--2-2-2---|

   anyone or you'll be just another regret (just another secret)
e|----3-3--3--3-3-3--3--3-3--3--3-3-3---3--3-3--3--3-3-3--2--2-2--2--3-3-3---|
B|----3-3--3--3-3-3--3--3-3--3--3-3-3---3--3-3--3--3-3-3--3--3-3--3--3-3-3---|
G|----0-0--0--0-0-0--0--0-0--0--0-0-0---0--0-0--0--0-0-0--2--2-2--2--2-2-2---|
D|----0-0--0--0-0-0--2--2-2--2--2-2-2---2--2-2--2--2-2-2--0--0-0--0--0-0-0---|
A|----2-2--2--2-2-2--3--3-3--3--3-3-3---2--2-2--2--2-2-2--0--0-0--0--0-0-0---|
E|-3--3-3--3--3-3-3---------------------0--0-0--0--0-0-0--2--2-2--2--2-2-2---|

  My dirty little secret
e|-3----3----3----3----|
B|-3----3----3----3----|
G|-0----0----0----0----|
D|-2----2----2----0----|
A|-3----3----3----3----|
E|---------------------|


Play Verse, Pre-chorus, and chorus again

Bridge(upstroke 1st chord)
       The  way  she  feels  inside        Those  thoughts  I  can't  deny
e|-0---3-3--3--3-3-3---3---3-3--3--3-3-3---3---3-3--3--3-3-3---3---3-3--3--3-3-3-|
B|-0---3-3--3--3-3-3---3---3-3--3--3-3-3---3---3-3--3--3-3-3---3---3-3--3--3-3-3-|
G|-0---0-0--0--0-0-0---0---0-0--0--0-0-0---0---0-0--0--0-0-0---0---0-0--0--0-0-0-|
D|-2---2-2--2--2-2-2---2---2-2--2--2-2-2---2---2-2--2--2-2-2---2---2-2--2--2-2-2-|
A|-2---2-2--2--2-2-2---2---2-2--2--2-2-2---3---3-3--3--3-3-3---3---3-3--3--3-3-3-|
E|-0---0-0--0--0-0-0---0---0-0--0--0-0-0-----------------------------------------|

       These  sleeping  dogs  won't  lie       and  now  I  try  to  lie
e|-0---3-3--3--3-3-3---3---3-3--3--3-3-3---3---3-3--3--3-3-3---3---3-3--3--3-3-3-|
B|-0---3-3--3--3-3-3---3---3-3--3--3-3-3---3---3-3--3--3-3-3---3---3-3--3--3-3-3-|
G|-0---0-0--0--0-0-0---0---0-0--0--0-0-0---0---0-0--0--0-0-0---0---0-0--0--0-0-0-|
D|-2---2-2--2--2-2-2---2---2-2--2--2-2-2---2---2-2--2--2-2-2---2---2-2--2--2-2-2-|
A|-2---2-2--2--2-2-2---2---2-2--2--2-2-2---3---3-3--3--3-3-3---3---3-3--3--3-3-3-|
E|-0---0-0--0--0-0-0---0---0-0--0--0-0-0-----------------------------------------|

       It's   eating   me   apart              Trace  this  line  baaaaaaaaack
e|-3---3-3--3--3-3-3---3---3-3--3--3-3-3---3---3-3--3--3-3-3---3---3-3--3--3-3-3-|
B|-3---3-3--3--3-3-3---3---3-3--3--3-3-3---3---3-3--3--3-3-3---3---3-3--3--3-3-3-|
G|-0---0-0--0--0-0-0---0---0-0--0--0-0-0---0---0-0--0--0-0-0---0---0-0--0--0-0-0-|
D|-0---0-0--0--0-0-0---0---0-0--0--0-0-0---2---2-2--2--2-2-2---2---2-2--2--2-2-2-|
A|-2---2-2--2--2-2-2---2---2-2--2--2-2-2---0---0-0--0--0-0-0---0---0-0--0--0-0-0-|
E|-------------------------------------------------------------------------------|

Intro again
e|----3--3------3--3---3-3-3-3-3-3------3--3------3--3---3-3-3-3-3-3-----|
B|----3--3------3--3---3-3-3-3-3-3------3--3------3--3---3-3-3-3-3-3-----|
G|----0--0------0--0---0-0-0-0-0-0------0--0------0--0---0-0-0-0-0-0-----|
D|----0--0------0--0---3-3-2-3-2-0------0--0------0--0---3-3-2-3-2-0-----|
A|----2--2------2--2---3-3-3-3-3-2------2--2------2--2---3-3-2-3-2-2-----|
E|-3--3--3---3--3--3-----------------3--3--3---3--3--3-------------------|

e|----3--3------3--3---3-3-3-3-3-3--------3--3------3--3---3-3-3-3-3-3---|
B|----3--3------3--3---3-3-3-3-3-3--------3--3------3--3---3-3-3-3-3-3---|
G|----0--0------0--0---0-0-0-0-0-0--------0--0------0--0---0-0-0-0-0-0---|
D|----0--0------0--0---3-3-2-3-2-0--------0--0------0--0---3-3-2-3-2-0---|
A|----2--2------2--2---3-3-3-3-3-2--------2--2------2--2---3-3-3-3-3-2---|
E|-3--3--3---3--3--3-------------------3--3--3---3--3--3-----------------|

      I'll keep you my dirty little secret (dirty little secret) Don't tell
e|----3-3--3--3-3-3--3--3-3--3--3-3-3---3--3-3--3--3-3-3--2--2-2--2--3-3-3---|
B|----3-3--3--3-3-3--3--3-3--3--3-3-3---3--3-3--3--3-3-3--3--3-3--3--3-3-3---|
G|----0-0--0--0-0-0--0--0-0--0--0-0-0---0--0-0--0--0-0-0--2--2-2--2--2-2-2---|
D|----0-0--0--0-0-0--2--2-2--2--2-2-2---2--2-2--2--2-2-2--0--0-0--0--0-0-0---|
A|----2-2--2--2-2-2--3--3-3--3--3-3-3---2--2-2--2--2-2-2--0--0-0--0--0-0-0---|
E|-3--3-3--3--3-3-3---------------------0--0-0--0--0-0-0--2--2-2--2--2-2-2---|

   anyone or you'll be just another regret (just another secret)
e|----3-3--3--3-3-3--3--3-3--3--3-3-3---3--3-3--3--3-3-3--2--2-2--2--3-3-3---|
B|----3-3--3--3-3-3--3--3-3--3--3-3-3---3--3-3--3--3-3-3--3--3-3--3--3-3-3---|
G|----0-0--0--0-0-0--0--0-0--0--0-0-0---0--0-0--0--0-0-0--2--2-2--2--2-2-2---|
D|----0-0--0--0-0-0--2--2-2--2--2-2-2---2--2-2--2--2-2-2--0--0-0--0--0-0-0---|
A|----2-2--2--2-2-2--3--3-3--3--3-3-3---2--2-2--2--2-2-2--0--0-0--0--0-0-0---|
E|-3--3-3--3--3-3-3---------------------0--0-0--0--0-0-0--2--2-2--2--2-2-2---|

   Dirty little secret, dirty little secret, dirty little secret (who has to know)
e|-3--3-3--3--3-3-3---2--2-2--2--2-2-2---3--3-3--3--3-3-3-------|
B|-3--3-3--3--3-3-3---3--3-3--3--3-3-3---3--3-3--3--3-3-3-------|
G|-0--0-0--0--0-0-0---2--2-2--2--2-2-2---0--0-0--0--0-0-0---2---|
D|-2--2-2--2--2-2-2---0--0-0--0--0-0-0---2--2-2--2--2-2-2---3---|
A|-3--3-3--3--3-3-3----------------------2--2-2--2--2-2-2---3---|
E|---------------------------------------0--0-0--0--0-0-0---1---|

End with intro
e|----3--3------3--3---3-3-3-3-3-3------3--3------3--3---3-3-3-3-3-3-----|
B|----3--3------3--3---3-3-3-3-3-3------3--3------3--3---3-3-3-3-3-3-----|
G|----0--0------0--0---0-0-0-0-0-0------0--0------0--0---0-0-0-0-0-0-----|
D|----0--0------0--0---3-3-2-3-2-0------0--0------0--0---3-3-2-3-2-0-----|
A|----2--2------2--2---3-3-3-3-3-2------2--2------2--2---3-3-3-3-3-2-----|
E|-3--3--3---3--3--3-----------------3--3--3---3--3--3-------------------|
236 reproducciones
    • ½ Tono
    • A
    • Bb
    • B
    • C
    • Db
    • D
    • Eb
    • E
    • F
    • F#
    • G
    • Ab
  • Adicionar à lista

    0 comentarios

    Ver todos os comentários

    ¿Conseguiste tocar?

    1 Tocaram 0 Ainda não

    Grave um vídeo tocando Dirty Little Secret Acoustic e nos envie!

    00:00 / 00:00
    outros vídeos desta música
    repetir qualidade Automático
    Outros vídeos desta música
    00:00 / 00:00
    Automático
    OK