Cifra Club

Aprenda

Pilsbury Doughgirl

The All-American Rejects

Tablatura: Principal (guitarra)
tono: G
(intro / pós-refrão)             (3x)                            
E|---------------------------------|-------------------------------|
B|---------------------------------|-------------------------------|
G|-11-11--10-10-10--8-8-8--6-6-6-6-|-8-8-8--6-6-6--8-8-8--10-10-10-|
D|-11-11--10-10-10--8-8-8--6-6-6-6-|-8-8-8--6-6-6--8-8-8--10-10-10-|
A|-9--9---8--8--8---6-6-6--4-4-4-4-|-6-6-6--4-4-4--6-6-6--8--8--8--|
E|---------------------------------|-------------------------------|
                                 (3x)                            
E|---------------------------------|-------------------------------|
B|---------------------------------|-------------------------------|
G|-11-11--10-10-10--8-8-8--6-6-6-6-|-8-8-8--6-6-6--4-4-4-4-4-4-----|
D|-11-11--10-10-10--8-8-8--6-6-6-6-|-8-8-8--6-6-6--4-4-4-4-4-4--4--|
A|-9--9---8--8--8---6-6-6--4-4-4-4-|-6-6-6--4-4-4--2-2-2-2-2-2--4--|
E|---------------------------------|----------------------------2--|

(verso)             (4x)                                                     
E|---------------------|-------------------------------------------------|
B|---------------------|-------------------------------------------------|
G|------6----8----4----|-------8-----6-----4-----------8-----6-----4-----|
D|-4----6(6)-8(6)-4(6)-|-4-----8(16)-6(16)-4(16)-4-----8(16)-6(16)-4(16)-|
A|-4(6)-4----6----2----|-4(16)-6-----4-----2-----4(16)-6-----4-----2-----|
E|-2-------------------|-2-----------------------2-----------------------|
pm....................... ..... ..... ..... ..... ..... .....

(refrão)
E|---------------------------------|
B|---------------------------------|
G|------6----4-----8-----4----6----|
D|-4----6(6)-4(12)-8(12)-4(6)-6(6)-|
A|-4(6)-4----2-----6-----2----4----|
E|-2-------------------------------|

(ponte)
E|-----------|--------------------------------------------------|
B|-----------|--------------------------------------------------|
G|-8---4-8-6-|-88888888------------44444444--88888888--66666666-|
D|-8-4-4-8-6-|-88888888--44444444--44444444--88888888--66666666-|
A|-6-4-2-6-4-|-66666666--44444444--22222222--66666666--44444444-|
E|---2-------|-----------22222222-------------------------------|
pm              .......   .......   .......
Colaboración y revision:
  • Felipe Oliveira
59 reproducciones
    • ½ Tono
    • A
    • Bb
    • B
    • C
    • Db
    • D
    • Eb
    • E
    • F
    • F#
    • G
    • Ab
  • Adicionar à lista

    0 comentarios

    Ver todos os comentários

    ¿Conseguiste tocar?

    0 Tocaram 0 Ainda não

    Grave um vídeo tocando Pilsbury Doughgirl e nos envie!

    00:00 / 00:00
    outros vídeos desta música
    repetir qualidade Automático
    Outros vídeos desta música
    00:00 / 00:00
    Automático
    OK