Cifra Club

A Paz Onde Ela Está

Canto Dos Malditos Na Terra do Nunca

Cifrado: Principal (guitarra y guitarra eléctrica)
tono: G
Bm      Am
Não sei mas preciso procurar
Bm      Am
Cansei dessa ânsia de amar
Bm      Am
Quem sabe o olho ou o olha
Bm      Am
Viu e vai procurar
                 Em
Lugar pra descansar
                 Am        B7
Nunca se esqueça que em paz
                 Em
Vive aquele que sabe
                 Am   B7 Em
Que todo mundo é capaz
             Am       B7
Mas acho que não pode
           Em
Esse lance de ficar
            Am       B7
Tanto tempo sem saber
               Em
O que eu posso consertar
          Am         B7
Mas se já for meu bem
        Em
Eu fico só também
                Am
Mas eu acho que você
           B7             Em
Mesmo sem mim pode ser alguém
G                   Am   B7
Ah e eu que preciso encontrar
G             Am    B7
A porta desse meu lugar
  Am                   B7
Será a paz onde ela está
         Am         B7
Estar em paz como será
    Am                B7
Alguém me traz a solução
                   Am
Buscar caminho em vão
                  Em
Pra nunca mais voltar

                 Am        B7
Nunca se esqueça que em paz
                 Em
Vive aquele que sabe
                 Am   B7 Em
Que todo mundo é capaz
             Am       B7
Mas acho que não pode
           Em
Esse lance de ficar
            Am       B7
Tanto tempo sem saber
               Em
O que eu posso consertar
          Am         B7
Mas se já for meu bem
        Em
Eu fico só também
                Am
Mas eu acho que você
           B7             Em
Mesmo sem mim pode ser alguém

[Solo]  A5  B5  E5  F#5  G5

E|-------------------------------------------------------------------------------------|
B|--------------------------------------------------------10-10-8-7--------------------|
G|------9-9-11-12---11-9-8---9-11-12--9-11-12---9-11-12-9-----------9-8--8-8-9-11-8-9--|
D|-------------------------------------------------------------------------------------|
A|-------------------------------------------------------------------------------------|  
E|-------------------------------------------------------------------------------------|

E|------------------------------------------------------------|
B|-10-8-7--10-8-7--10-8-7-----7-8-----10-8-7------------7-----|
G|------------------------9-8-----9-7--------9-8--8-8-9---8-9-|
D|------------------------------------------------------------|
A|------------------------------------------------------------|  
E|------------------------------------------------------------|

( Em  Em11/B )
00:00 / 00:00
Otros videos de esta canción
Repetir
Otros videos de esta canción
Composición de Andrea Martins
Colaboración y revisión:
  • Douglas Lima
5 vistas
    • ½ Tono
    • A
    • Bb
    • B
    • C
    • Db
    • D
    • Eb
    • E
    • F
    • F#
    • G
    • Ab
  • Agregar a la lista

    0 comentarios

    Ver todos los comentarios

    ¿Lograste tocar?

    1 Tocaron 0 Aún no

    ¡Graba un video tocando A Paz Onde Ela Está y envíanoslo!

    00:00 / 00:00
    OK