Notificações Amigos pendentes

      Carlos Santana

      Let Me Love You Tonight

      48 reproducciones
      Tono: F
      Santana 
      Let me love you tonight 
       
      Intro
      e|-12---------12--------------------------------------------|
      B|*|
      G|---------------------------------------14-14----14-14-14.-|
      D|----------------------------------------------------------|
      A|----------------------------------------------------------|
      E|----------------------------------------------------------|
      
      Am                                                   G
      It’s midnight - And I don’t want to see you leaving
      Am                              G                Am      G      A*
      Thought of you - going back - back to him is killing me
      Am                                G
      Baby please - how can you torture my heart
         Dm                    Am
      We both know - where we belong
      Am                      G
      we belong here in each other’s arms.
      
      Coro
      Dm
      Come with me and we can make the heavens sing (Riff 1)
      Am
      can’t deny the forces that you feel within (Riff 2)
      Dm
      come with me and we can make the heavens sing (Riff 3)
       Am                              G
      let me love you tonight, let me love you tonight.
       
      Riff 1
      e|---------------------|
      B|*|
      G|--------------14-14.-|
      D|---------------------|
      A|---------------------|
      E|---------------------|
      
      Riff 2
      
      e|----13-------------------------|
      B|-15----15-15-------------------|
      G|-------------13/14-12-10-10/12-|
      D|-------------------------------|
      A|-------------------------------|
      E|-------------------------------|
      
      
      Riff 3
      
      e|-------13--------|
      B|-13-15----15-15.-|
      G|-----------------|
      D|-----------------|
      A|-----------------|
      E|-----------------|
      
      
      (if you)
      Dm
      Go we’ll never know - what tomorrow (Riff 4) brings 
      Am
      got to be a way to end this – suffering (Riff 5)
      Dm
      come with me and we can make the heavens sing
      Am                             G
      let me love you tonight, let me love you tonight.
       
      Riff 4
      
      e|-----------------------------|
      B|-13/15..-13------------------|
      G|------------14-14-12----(12)-|
      D|---------------------15------|
      A|-----------------------------|
      E|-----------------------------|
      
      
      Riff 5
      e|-------13----------------|
      B|*.-|
      G|-------------------------|
      D|-------------------------|
      A|-------------------------|
      E|-------------------------|
       
      Am                                      G
      Baby I - I don’t wanna see you hurting…(no more)
      Am                                      G       Am             G                  A*
      gotta do what’s right - ’cos we can’t - can’t go on like this anymore
      Am                                      G
      I’m on my knees - you know it’s over with him
      Dm                      Am
      so why go back - when all that you need
        Am                            G
      you know that it’s right here with me.
      
      Coro
      Dm
      Come with me and we can make the heavens sing (Riff 6)
      Am
      can’t deny the forces that you feel within
      Dm
      come with me and we can make the heavens sing (Riff 3)
      Am                             G
      let me love you tonight, let me love you tonight.
       
      Riff 6
      e|-----------------------|
      B|*|
      G|--------14-12-14-12----|
      D|--------------------15-|
      A|-----------------------|
      E|-----------------------|
      
      Riff 7
      
      e|----------------------|
      B|-13-13-13-13-13*15-15-|
      G|----------------------|
      D|----------------------|
      A|----------------------|
      E|----------------------|
      
       
      (if you)
      Dm
      Go We’ll never know - what tomorrow (Riff 7) brings
      Am
      got to be a way to end this - suffering
      Dm
      come with me and we can make the heavens sing
      Am                             G
      let me love you tonight, let me love you tonight.
       
      Come with me and we can make the heavens sing
      e|-------------------------------------------------------------
      B|-------------------------------------------------------------
      G|*
      D|*
      A|-------------------------------------------------------------
      E|-------------------------------------------------------------
      
      Come with me and we can make the heavens sing
      
      e|-------10-10.-*..-|
      B|-11-13----------------------------|
      G|----------------------------------|
      D|----------------------------------|
      A|----------------------------------|
      E|----------------------------------|
      
      
      Solo
      e|*
      
      B|-----------15---------------------------15-15-15----15-15.--
      G|------------------------------------------------------------
      D|------------------------------------------------------------
      A|------------------------------------------------------------
      E|------------------------------------------------------------
      
      
      e|-------------------------------------------8-8------------------
      B|-----------------------------------------8-----11-11-10-10-8-8--
      G|-14-12-12-------12-14---------------9/10------------------------
      D|----------15-12-------15-12-15-15-------------------------------
      A|----------------------------------------------------------------
      E|----------------------------------------------------------------
      
      
      e|*|
      
      B|---11-11-10-10-8-8----8/*,-etc-|
      G|-------------------10--------------------------------------------------|
      D|-----------------------------------------------------------------------|
      A|-----------------------------------------------------------------------|
      E|-----------------------------------------------------------------------|
      
      
      A* = 577655
      
      
       
      
        Composición: Santana

        Comentarios 0

        140 .
        140 cancelar

        ¿conseguiste tocar?

        covers

        ¡Grave un vídeo tocando Let Me Love You Tonight y envie para nosotros!

        Ex.: http://www.youtube.com/watch?v=0IvSvIwGdwk
        ver cover de otras canciones »
        0:00 / 0:00

        Capitulos

          1 versão de guitarra dificuldad reproducciones contribuición y correción
          1 versão de guitarra eléctrica dificuldad reproducciones contribuición y correción
          1 versão de cavaco dificuldad reproducciones contribuición y correción
          1 versão de teclado dificuldad reproducciones contribuición y correción
          play/pausefechar subir/bajar velocidad
          6ª cuerda E5ª cuerda A4ª cuerda D3ª cuerda G2ª cuerda B1ª cuerda E
            acordes
            publicidad
            cerrar
            ok