Cifra Club

La granja de los super bebes

Chancho En Piedra

Cifrado: Principal (guitarra y guitarra eléctrica)
Selo Cifra Club: esta cifra foi revisada para atender aos critérios oficiais da nossa Equipe de Qualidade.
tono: F#
Intro:

E|------------------------|------------------------|
B|------------------------|------------------------|
G|------------------------|------------------------|
D|------------------------|------------------------|
A|------------------------|------------------------|
E|-0-3-5-0--0-3-5-6-5-3-0-|-0-3-5-0--0-3-5-6-5-3-0-|

E|------------------------|------------------------|
B|------------------------|------------------------|
G|------------------------|------------------------|
D|-----5-5----------------|-5-5-4-4----------------|
A|-----5-5----------------|-5-5-4-4----------------|
E|-5-5-3-3--0-3-5-6-3-----|-3-3-2-2--0-3-5-6-3-2---|


        Si su hijo está en edad de escolar...
E|------------------------|------------------------|
B|------------------------|------------------------|
G|------------------------|------------------------|
D|------------------------|------------------------|
A|------------------------|------------------------|
E|-0-3-5-0--0-3-5-6-5-3-0-|-0-3-5-0--0-3-5-6-5-3-0-|

E|------------------------|----------10*--9*--8*---|
B|------------------------|----------10*--9*--8*---|
G|------------------------|------------------------|
D|-----5-5----------------|-5-5-4-4----------------|
A|-----5-5----------------|-5-5-4-4----------------|
E|-5-5-3-3--0-3-5-6-3-----|-3-3-2-2----------------|


Verso:

E|-----------------------------7--|
B|--10/-12-10-10---10/-12-10-9-7--| *se repite
G|--10/-12-10-10---10/-12-10-9----|
D|--------------------------------|
A|--------------------------------|
E|--------------------------------|

        De este mundo...
E|--------------------------------|------------|
B|-12--12-10*--10-9-9--9-10-10----|-10-9-7-10--| *Aqui pongola Trompeta
G|-12--12-10*--10-9-9--9-10-10----|-10-9-7-10--| *Se repite
D|-10--10-8*---8--7-7--7-8--8-----|-8--7-5-8---|
A|--------------------------------|------------|
E|--------------------------------|------------|


        Si su hijo está en edad de escolar...
E|------------------------|------------------------|
B|------------------------|------------------------|
G|------------------------|------------------------|
D|------------------------|------------------------|
A|------------------------|------------------------|
E|-0-3-5-0--0-3-5-6-5-3-0-|-0-3-5-0--0-3-5-6-5-3-0-|

E|------------------------|------------------------|
B|------------------------|------------------------|
G|------------------------|------------------------|
D|-----5-5----------------|-5-5-4-4----------------|
A|-----5-5----------------|-5-5-4-4----------------|
E|-5-5-3-3--0-3-5-6-3-----|-3-3-2-2----------------|


Verso:

E|-----------------------------7--|
B|--10/-12-10-10---10/-12-10-9-7--| *se repite
G|--10/-12-10-10---10/-12-10-9----|
D|--------------------------------|
A|--------------------------------|
E|--------------------------------|

        De este mundo...
E|--------------------------------|------------|
B|-12--12-10*--10-9-9--9-10-10----|-10-9-7-10--| *Aqui pongo la Trompeta
G|-12--12-10*--10-9-9--9-10-10----|-10-9-7-10--| *Se repite
D|-10--10-8*---8--7-7--7-8--8-----|-8--7-5-8---|
A|--------------------------------|------------|
E|--------------------------------|------------|



                (...)


  ...Frente al común de los mortales...
E|--------------------------------------|
B|--------------------------------------|
G|-6-6-4-6-4-6-7-6--8--7--6-6-6-6-6-6-6-|
D|-6-6-4-6-4-6-7-6--8--7--6-6-6-6-6-6-6-|
A|-4-4-2-4-2-4-5-4--6--5--4-4-4-4-4-4-4-|
E|--------------------------------------|


Solo:

E|-12**-12**-12**-12-12-10-10-15**-15**-12**-12-12-10-10-|
B|-------------------------------------------------------|
G|-------------------------------------------------------|
D|-------------------------------------------------------|
A|-------------------------------------------------------|
E|-------------------------------------------------------|

E|-7-8-9-9-10-11-10-11-12-12-13-14-13-14-15-15-15-15**---|
B|-------------------------------------------------------|
G|-------------------------------------------------------|
D|-------------------------------------------------------|
A|-------------------------------------------------------|
E|-------------------------------------------------------|

E|-12**-12**-12**-12-12-10-15*-15*-15*-15****17****------|
B|-------------------------------------------------------|
G|-------------------------------------------------------|
D|-------------------------------------------------------|
A|-------------------------------------------------------|
E|-------------------------------------------------------|


Verso:

E|-----------------------------7--|
B|--10/-12-10-10---10/-12-10-9-7--| *se repite
G|--10/-12-10-10---10/-12-10-9----|
D|--------------------------------|
A|--------------------------------|
E|--------------------------------|

        De este mundo...
E|--------------------------------|------------|
B|-12--12-10*--10-9-9--9-10-10----|-10-9-7-10--| *Aqui pongo la Trompeta
G|-12--12-10*--10-9-9--9-10-10----|-10-9-7-10--| *Se repite
D|-10--10-8*---8--7-7--7-8--8-----|-8--7-5-8---|
A|--------------------------------|------------|
E|--------------------------------|------------|
Otros videos de esta canción
    59 exhibiciones
      • ½ Tono
      • A
      • Bb
      • B
      • C
      • Db
      • D
      • Eb
      • E
      • F
      • F#
      • G
      • Ab
    • Agregar a la lista

    Afinação da cifra

    Afinador online

      Ops (: Contenido disponible solo en portugués.
      OK