Cifra Club

Solo contra el mundo

Chancho En Piedra

Cifrado: Principal (guitarra y guitarra eléctrica)
Selo Cifra Club: esta cifra foi revisada para atender aos critérios oficiais da nossa Equipe de Qualidade.
tono: Gm
E|-3-10-8-9----|
B|-4-12-9-10---|
G|-3-10-8-9----|
D|-------------|
A|-------------| Los dos ultimos acordes se repiten
E|-------------|

Punteos (en el verso)

|6/11-13-11-8-|-6/11-13-14-13-11-8-|
B|-------------|--------------------|
G|-------------|--------------------|
D|-------------|--------------------|
A|-------------|--------------------|

Coro
Yo voy a descubrir...

Antes de esto hace un Slide desde el espacio 15 hasta el 3

E|----------------------------------------------------------|
B|----------------------------------------------------------|
G|----------------------------------------------------------|
D|-------------------------------1-3------------------------|
A|-3-5-6-3-5-6-3-6-3-5-6-------3------3-5-6-3-5-6-3-6-3-5-6-|
E|-----------------------3-2-1------------------------------|


E|--------------------|
B|--------------------|
G|--------------------|
D|------------5-1-3-1-|
A|------3-2-1---------|
|3-2-1---------------|

Variaciones del final

E|--------------|
B|--------------|
G|--------------|
D|--------------|
|1-2-3-------1-|
E|-------1-2-3--|

en la empresa que acabo de inaugurar

E|------------------------------------------------|
B|------------------------------------------------|
G|------------------5-4-3-----------0-3-3-0-3-----|
D|-------------3-2-1------------1-3---------------|
A|-------3-2-1------------------------------------|
E|-3-2-1------------------------------------------|

Me tendre que levantar...

E|-------------------|
B|-------------------|
G|-10-8---------8----|
D|-10-8-10-8-10-8-10-|
A|-8--6-10-8-10-6-10-|
E|------8--6-8----8--|


Interludio

E|-----------------|
B|-----------------|
G|-----------------|
D|-----------------|
A|-6-3-5-6-5-3-6-3-| 2 veces
E|-----------------|

E|-------------------|
B|-------------------|
G|-------------------|
D|-------------------|
|10-6-8-10-8-6-10-6-|
E|-------------------|

E|-----------|
B|-----------|
G|-----------|
D|---------3-|
|5-3--------|
E|---6-5-4---|


Voy solo contra el mundo...
E|---------------|
B|---------------|
G|---------------|
D|-------------6-|
A|-5-6-5---------|
E|------6-5-4----|

Tu Puede que me caigas bien...(lo mismo que el solo)

Se que no se cacha mucho pero iwal no ma...

E|-9-/10-10-9-/10-9-/10-10-9--7/8-8-7/8-7/8-9-7-7-8-6/7-7-6/7-7-7-8-8-9/7-7-|
B|-10/11-11-10/11-10/11-11-10-8/9-9-8/9-8/9-9-8-8-8-7/8-8-7/8-7-8-9-9-9/8-8-|
G|-9-/10-10-9-/10-9-/10-10-9--7/8-8-7/8-7/8-8-7-7-7-6/7-7-6/7-6-7-8-8-8/7-7-|
D|--------------------------------------------------------------------------|
A|--------------------------------------------------------------------------|
E|--------------------------------------------------------------------------|
Otros videos de esta canción
    280 exhibiciones
      • ½ Tono
      • Am
      • Bbm
      • Bm
      • Cm
      • C#m
      • Dm
      • Ebm
      • Em
      • Fm
      • F#m
      • Gm
      • G#m
    • Agregar a la lista

    Afinação da cifra

    Afinador online

      Ops (: Contenido disponible solo en portugués.
      OK