Cifra Club

Tâmo aí Na Atividade

Charlie Brown Jr.

Cifrado: Principal (guitarra y guitarra eléctrica)
tono: F
[Intro]

Eles querem que você se sinta mal
Pois assim eles se sentem bem

Riff 1

E|------------------------------------------|
B|------------------------------------------|
G|------------------------------------------|
D|------8----11-8----8~---------------------|
A|-8-11---11------11------------------------|
E|------------------------------------------|

E|------------------------------------------|
B|------------------------------------------|
G|------------------------------------------|
D|------8----11-8-----------------11h13-8~--|
A|-8-11---11------11------------------------|
E|--------------------9h11~-\9-6------------|

(Guitarra com delay)

   Bbm
E|-6~---------------------------------------|
B|-6~---------------------------------------|
G|-6~---------------------------------------|
D|------------------------------------------|
A|------------------------------------------|
E|------------------------------------------|

[Primeira Parte]

Bbm                     Ebm  
    Eu nasci pobre mas não nasci otário
Bbm                       Ebm          
    Eu é que não caio no conto do vigário
    Bbm                       Ebm
Eu tenho fé em Deus pra resolver qualquer parada
  Bbm                  Ebm
Chega com respeito na minha quebrada

[Segunda Parte]

(Guitarra com delay)

   Bbm
E|-6~---------------------------------------|
B|-6~---------------------------------------|
G|-6~---------------------------------------|
D|------------------------------------------|
A|------------------------------------------|
E|------------------------------------------|

Riff 2           
                                         
E|------------------------------------------|
B|------------------------------------------|
G|------------------------------------------|
D|------------------------------------------|
A|-1-1-1-4-4-1---4/6--4-1-----1~------------|
E|-------------4-----------4----------------|

Bbm
    Eu não vim pra me explicar

Eu vim pra confundir

Não vim pra me explicar

[Terceira Parte]

     Bbm                       Ebm
Vem cá seu cu-de-burro vou te dar um esculacho
        Bbm                          Ebm   
Sua atitude é de playboy porque sua vida é muito fácil
    Bbm                          Ebm
Vencer na vida, no mundão é só pra quem tem coragem
    Bbm                       Ebm 
Um dia eu levo ela pra ver o pôr do sol da laje

[Quarta Parte]

Riff 3
       
E|--------------------------16--------------|
B|-16b17-16----14-16-----14-----------------|
G|----------15-------15~------------~-------|
D|------------------------------------------|
A|------------------------------------------|
E|------------------------------------------|

E|------------------------------------------|
B|-16b17-16----14-16-----14-16--------------|
G|----------15-------15~------------~-------|
D|------------------------------------------|
A|------------------------------------------|
E|------------------------------------------|

Bbm  Ebm             Bbm
    Tamo aí na atividade
 Ebm             Bbm   
Tamo aí na atividade
 Ebm             Bbm  Ebm
Tamo aí na atividade

[Quinta Parte]
   
    Bbm                                        
Me basta o que venha do surf
    F5
Me basta o que venha do skate
    Bbm
Me basta o que venha do coração
    F5
Me basta o que venha da mente

    Bbm                                        
Me basta o que venha do surf
    F5
Me basta o que venha do skate
    Bbm
Me basta o que venha do coração
    F5
Me basta o que venha da mente

          Bbm               F5
Eles são gente mas não são gente como a gente
          Bbm               F5
Eles são gente mas não são gente como a gente

[Sexta Parte]

    Bbm
Meu estilo de vida
   Ebm
Liberta minha mente
     Bbm
Completamente louco
        Ebm
Mas um louco consciente

[Quarta Parte]

Riff 3
       
E|--------------------------16--------------|
B|-16b17-16----14-16-----14-----------------|
G|----------15-------15~------------~-------|
D|------------------------------------------|
A|------------------------------------------|
E|------------------------------------------|

E|------------------------------------------|
B|-16b17-16----14-16-----14-16--------------|
G|----------15-------15~------------~-------|
D|------------------------------------------|
A|------------------------------------------|
E|------------------------------------------|

Bbm  Ebm             Bbm
    Tamo aí na atividade
 Ebm             Bbm   
Tamo aí na atividade
 Ebm             Bbm  Ebm
Tamo aí na atividade

[Sétima Parte]
       
       Bbm
Agora sei

O quanto é precioso o nosso tempo

A gente tem que dar valor

Certas coisas não tem preço

O fato é que a gente tem que se preservar

Riff 4

E|-----4-----4-----3-----3/13--------|
B|---2-----2-----2-----2-------------|
G|-3-----3-----3-----3---------------|
D|-----------------------------------|
A|-----------------------------------|
E|-----------------------------------|

Viver intensamente com a cabeça no lugar

[Oitava Parte]

 Bbm                  Ebm
Não, eu não me sinto mal
                     Bbm       Ebm
Eu sobrevivo a todo lixo, todo ódio, com amor
            Bbm            Ebm
Eu sou o valor das coisas simples
          Bbm             Ebm
Eu dou valor pras coisas simples
 Bbm                  Ebm
Não, eu não me sinto mal
                           Bbm                       Ebm
Eu quero é mais que eles queimem na fogueira das vaidades
          Bbm             Ebm
Eu dou valor pras coisas simples
          Bbm            Ebm
Eu sou valor das coisas simples

Eu

[Nona Parte]

Bbm
    Mas me diz então

O que da vida posso ter?

Como tudo deve ser?

Com as balizas do nosso sistema

Mas me diz então

O que da vida posso ter

Eu tenho fé em Deus

Pra resolver qualquer problema

[Primeira Parte]

Bbm                     Ebm  
    Eu nasci pobre mas não nasci otário
Bbm                       Ebm          
    Eu é que não caio no conto do vigário
    Bbm                       Ebm
Eu tenho fé em Deus pra resolver qualquer parada
  Bbm                  Ebm
Chega com respeito na minha quebrada

[Quarta Parte]

Riff 3
       
E|--------------------------16--------------|
B|-16b17-16----14-16-----14-----------------|
G|----------15-------15~------------~-------|
D|------------------------------------------|
A|------------------------------------------|
E|------------------------------------------|

E|------------------------------------------|
B|-16b17-16----14-16-----14-16--------------|
G|----------15-------15~------------~-------|
D|------------------------------------------|
A|------------------------------------------|
E|------------------------------------------|

Bbm  Ebm             Bbm
    Tamo aí na atividade
 Ebm             Bbm   
Tamo aí na atividade
 Ebm             Bbm  Ebm
Tamo aí na atividade

[Quinta Parte]
   
    Bbm                                        
Me basta o que venha do surf
    F5
Me basta o que venha do skate
    Bbm
Me basta o que venha do coração
    F5
Me basta o que venha da mente

    Bbm                                        
Me basta o que venha do surf
    F5
Me basta o que venha do skate
    Bbm
Me basta o que venha do coração
    F5
Me basta o que venha da mente

          Bbm               F5
Eles são gente mas não são gente como a gente
          Bbm               F5
Eles são gente mas não são gente como a gente
         Bbm            F5               Bbm  F5
O meu estilo de vida liberta minha mente

Bbm
    Eu sou completamente louco

Mas um louco consciente!
Composición de Chorão / Luiz Carlos Jr. Leao Duarte / Marcão / Pelado
Colaboración y revisión:
  • Thiago Almeida
  • Marvin
1.089 vistas
    • ½ Tono
    • A
    • Bb
    • B
    • C
    • Db
    • D
    • Eb
    • E
    • F
    • F#
    • G
    • Ab
  • Agregar a la lista

    0 comentarios

    Ver todos los comentarios

    ¿Lograste tocar?

    17 Tocaron 3 Aún no

    ¡Graba un video tocando Tâmo aí Na Atividade y envíanoslo!

    00:00 / 00:00
    Outros vídeos desta música
    Repetir Calidad Automático
    Outros vídeos desta música
    00:00 / 00:00
    Automático
    OK