Cifra Club

A tale that wans't right (versão 2)

Helloween

Cifrado: Principal (guitarra y guitarra eléctrica)
tono: C
Intro/verse:1 (gtr.1)                                                                            

Gtr.1
  Am               Em               Am              Fm                
E|-0---0---0---0--|-0---0---0---0--|-0---0---0---0--|-1---1---1---1--|
B|-1---1---1---1--|-0---0---0---0--|-1---1---1---1--|-1---1---1---1--|
G|----------------|----------------|----------------|----------------|
D|---2---2---2---2|---2---2---2---2|---2---2---2---2|---3---3---3---3|
A|----------------|----------------|----------------|----------------|
E|----------------|----------------|----------------|----------------|
                                                       
   Dm               Am               Em 
E|-1---1---1---1--|-0---0---0---0--|-0---0---0---0---|
B|-3---3---3---3--|-1---1---1---1--|-0---0---0---0---|
G|---2---2---2---2|----------------|-----------------|
D|----------------|---2---2---2---2|---2---2---2----2|
A|----------------|----------------|-----------------|
E|----------------|----------------|-----------------|

Versão Live in 3 continents
   Dm                       Am               Em 
E|-1---1----3-1-0---0-h1--|-0---0---0---0--|-0---0---0---0---|
B|-3---3----------3-----3-|-1---1---1---1--|-0---0---0---0---|
G|---2---2----------------|----------------|-----------------|
D|------------------------|---2---2---2---2|---2---2---2----2|
A|------------------------|----------------|-----------------|
E|------------------------|----------------|-----------------|
                                                                       
   Am                                    Gm                       
E|-0---0---|------0------|----------------3--------------||
B|-1---1---|------1------|----------------3--------------||
G|---------|-------------|----------------4--------------||
D|---2---2-|-------------|----------------5--------------||
A|---------|-------------|----------------5--------------||
E|---------|-------------|----------------3--------------||
                                                                 
Gtr.2                                                            
e|-----------------------------------------------------------------|
B|-10--12rb-10-12b-12--10rb--15b-15b--15-13-12-13-10--10-12-13-12--|
G|-----------------------------------------------------------------|
D|-----------------------------------------------------------------|
A|-----------------------------------------------------------------|
E|-----------------------------------------------------------------|
 
e|---------------------15b-15b--15-13-12-13-10--|
B|-10-15-13--12h13-12---------------------------|
G|----------------------------------------------|
D|----------------------------------------------|
A|----------------------------------------------|
E|----------------------------------------------|   

e|-----------------------------------------------|
B|---10-12-13-12--12h13p12--10-12b-13rb-10rb-10--|
G|-9---------------------------------------------|
D|-----------------------------------------------|
A|-----------------------------------------------|
E|-----------------------------------------------|                                                              
                                                              
Verse:1                                                                
Here I stand all alone 
Have my mind turned to stone
Have my heart filled up with ice    
To avoid its breakin'  twice                                                                    
Thanx to you,my dear old friend
But you can't help, this is the end
Of a tale that wasn't right
I won't have no sleep tonight

chorus:
e|----------------------------------------------|
B|----------------------------------------------|
G|----------------------------------------------|
D|-----------------5-3--------------------------|
A|-3-5-7--7-3-5--3-3-1-5---3-5-7--7-3-5--3-2-7--|
E|-1-3-5--5-1-3--1-----3---1-3-5--5-1-3--1-0-5--|

Chorus:
In my heart, in my soul
I really hate to pay this to-ll
Should be strong, young and bold
But the only thing I feel is pain

Verse;2
e|-0---0-----0-------0--0---0-----0-------0--0---0-----0-------0--|
B|-1-----1-----1--------0-----0-----1--------1-----1-----1--------|
G|-2-2-----2-----2-2----1-1-----1-----1-1----2-2-----2-----2-2----|
D|-2--------------------2--------------------2--------------------|
A|-0--------------------2--------------------0--------------------|
E|----------------------0-----------------------------------------|

e-1---1-----1-------1-1---1-----1------0--0---0-----0-------0--|
B|-1-----1-----1-------3-----3-----3-------1-----1-----1--------|
G|-2-2-----2-----2-2---2-2-----2----2-2----2-2-----2-----2-2----|
D|-3-------------------0-------------------2--------------------|
A|-3-------------------0-------------------0--------------------|
E|-1------------------------------------------------------------|

e|-0---0-----0-------0---0---0-----0-------0--0--|
B|-0-----0-----1---------1-----1-----1--------1--|
G|-1-1-----1-----1-1-----2-2-----2-----2-2----2--|
D|-2---------------------2--------------------2--|
A|-2---------------------0--------------------0--|
E|-0---------------------------------------------|

Verse:2
It's  alright ,we'll stay friends 
Trustin' in my confidence 
And let's say it's just alright 
I won't have no sleep tonight 

chorus:
e|----------------------------------------------|
B|----------------------------------------------|
G|----------------------------------------------|
D|-----------------5-3--------------------------|
A|-3-5-7--7-3-5--3-3-1-5---3-5-7--7-3-5--3-2-7--|
E|-1-3-5--5-1-3--1-----3---1-3-5--5-1-3--1-0-5--|

Chorus:
In my heart, in my soul
I really hate to pay this to-ll
Should be strong, young and bold
But the only thing I feel is pain


Solo: gtr.1(F,G,A,C,G,Em,A)

Solo:   
e|------------------------------------------------------|
B|------------------------------------------------------|
G|-------------9-12b--10p9h10-------------7-10b--9p7h9--|
D|---7-9-10-7--------------------5-7-9-5----------------|
A|-7---------------------------5------------------------|
E|------------------------------------------------------|
  
e|---------------------------------------------|
B|---------------------------------------------|
G|--------------15b*--17p15---------------7----|
D|---3-5-7-3--7-------------15----7-9-10----7--|
A|-3----------------------------7--------------|
E|---------------------------------------------|
                                                                    
chorus:
e|----------------------------------------------|
B|----------------------------------------------|
G|----------------------------------------------|
D|-----------------5-3--------------------------|
A|-3-5-7--7-3-5--3-3-1-5---3-5-7--7-3-5--3-2-5--|
E|-1-3-5--5-1-3--1-----3---1-3-5--5-1-3--1-0-3--|
                                                           
Chorus:
With  my   heart,  with   my   soul
Some   guys   cry   you   bought   and   sold 
They've    been     strong ,   young  and   bold
And   they  say ,  play  this  song  again
Composición de Michael Weikath
Colaboración y revisión:
  • Bruno Esteves
  • guepardo weles
227 vistas
    • ½ Tono
    • A
    • Bb
    • B
    • C
    • Db
    • D
    • Eb
    • E
    • F
    • F#
    • G
    • Ab
  • Agregar a la lista

    0 comentarios

    Ver todos los comentarios

    ¿Lograste tocar?

    0 Tocaron 1 Aún no

    ¡Graba un video tocando A tale that wans't right (versão 2) y envíanoslo!

    00:00 / 00:00
    Outros vídeos desta música
    Repetir Calidad Automático
    Outros vídeos desta música
    00:00 / 00:00
    Automático
    OK