Cifra Club

Arizona

Kings Of Leon

Tablatura: Principal (guitarra)
Tom: E
Intro:
E|----------------------------------------------------------------|
B|----------------------------------------------------------------|
G|----------------------------------------------------------------|
D|--6---6/7-7-7/9----9-/11-11-11\9--9-----4-4-----6-6-------------|
A|--7---7/9-9-9/11---11/12-12-12\11-11----6-6-6/7-7-7-------------|
E|--0---0---0-0-0----0-----0--0-----0-----0-0-0---0-0-------------|

Solo:
E|----------------------------------------------0-0---------------|
B|--2--4-5-4-5--/-9----9-10-9-10-9-9-/-12\------5-7b-hold---------|
G|----------------------------------------------------------------|
D|----------------------------------------------------------------|
A|----------------------------------------------------------------|
E|----------------------------------------------------------------|

E|-----------------------------------------------0--0-------------|
B|--2---4-5-4-5--/-9----9-10-9-10-9-9-/-12\------17-19b-hold------|
G|----------------------------------------------------------------|
D|----------------------------------------------------------------|
A|----------------------------------------------------------------|
E|----------------------------------------------------------------|
reproducciones 534
Acordes para:

    0 comentarios

    mostrar más comentarios

    ¿Conseguiste tocar?

    1 tocaron 0 aún no

    ¡Graba un vídeo tocando Arizona y envianoslo!

    00:00 / 00:00
    outros vídeos desta música
    repetir qualidade Automático
    Outros vídeos desta música
    00:00 / 00:00
    Automático
    OK