Cifra Club

Talihina Sky

Kings Of Leon

Tablatura: Principal (guitarra)
Tom: D
Gtr.2 verso 1 e refrão
 
E|-----------9-------12--------9-------------------------------|
B|-----10------10-------10-------10----------------------------|
G|--11----11------11-------11-------11-------------------------|
D|-------------------------------------------------------------|
A|-------------------------------------------------------------|
E|-------------------------------------------------------------|
                                                                
E|---------2------5------2-------------------------------------|
B|-----3-----3------3------3-----------------------------------|
G|---4---4-----4------4------4---------------------------------|
D|-------------------------------------------------------------|
A|-------------------------------------------------------------|
E|-------------------------------------------------------------|

verso 1

D                           Bm
Weeds blow tall on a broken train track
D                               Bm
Ruth B' draws were fixin' to get high
D                                                         Bm
Maybe we'll hit the bluffs and find ourselves the same old rum

verso 2

G
But everybody says this place is beautiful
A
And you'd be so crazy to say goodbye
G
But everything's the same this town is pitiful
A                                        G
And I'll be gettin' out as soon as I can fly

refrão

D            Bm
Life goes by on a Talihina Sky

verso 1

D                                      Bm
The hopped up boys are looking for their trouble
D                                               Bm
The knocked up girls, well they've all got their share
D                                                         Bm
Ruth seems out of her mind, swears she won't give in this time
reproducciones 454
Acordes para:
    Composição: N/A Colaboración y revision:
    • Marcos Martins
    • Jackson Santos

    0 comentarios

    mostrar más comentarios

    ¿Conseguiste tocar?

    0 tocaron 1 aún no

    ¡Graba un vídeo tocando Talihina Sky y envianoslo!

    00:00 / 00:00
    outros vídeos desta música
    repetir qualidade Automático
    Outros vídeos desta música
    00:00 / 00:00
    Automático
    OK