Cifra Club

Knocked Up Intro

Kings Of Leon

Tablatura: Principal (guitarra)
Tom: E
This is the first track off their new album 'Because of The Times'

This is not the guitar part at the very beginning, it comes in at 0"38

e -----------------------|
B -----------------------|
G -----------------------|
D -----------------------| a few times then:
A -----2--2-2------4--4--|
E --0----------0---------|

e -----------------------|
B -----------------------|
G -----------------------|
D -----------------------| 
A -----2--2-2------4--4--|
E --4----------4---------|

the high pitched guitar part played over the above:

e ------19---------------|
B ----------19~----------|
G --21-------------------|
D -----------------------|
A -----------------------|
E -----------------------|

A. Taylor
reproducciones 80
Acordes para:

    0 comentarios

    mostrar más comentarios

    ¿Conseguiste tocar?

    0 tocaron 0 aún no

    ¡Graba un vídeo tocando Knocked Up Intro y envianoslo!

    00:00 / 00:00
    outros vídeos desta música
    repetir qualidade Automático
    Outros vídeos desta música
    00:00 / 00:00
    Automático
    OK