Cifra Club

Se Eu Me Entregar

Kleo Dibah e Rafael

Cifrado: Principal (guitarra y guitarra eléctrica)
tono: D
Solo:
E|-------------------------------------------------------------------------------
B|5/7--7-7-7-5/7~-------------------3/5-5-5-5-3-3/5~-5-5-5--5/7-7/5/3------------
G|-6/7--7-7-7-6/7~--7-7-7-7/9-7-6~---4/6-6-6-6-4-4/6~-6-6-6-----------4/7/4-4/7/4
D|-----------------7-7-7-7/9-7-7~------------------------------------------------
A|-------------------------------------------------------------------------------
E|-------------------------------------------------------------------------------

E|----------------------------------------
B|-----3/2--------------------------------
G|--------4p2---------------------7-9/11--
D|--2/4------4/5~--5/7~-7/9~-----9------9~
A|----------------------------7/9---------
E|----------------------------------------

2º Solo:
E|---------------------------------------------------------------------------------
B|5/7--7-7-7-5/7~-------------------3/5-5-5-5-3-3/5~--------5/7-5------------------
G|-6/7--7-7-7-6/7~--7-7-7-7/9-7-6~---4/6-6-6-6-4-4/6~----4-7-----7-4--4/7/4--4/7/4~
D|-----------------7-7-7-7/9-7-7~---------------------4/7--------------------------
A|---------------------------------------------------------------------------------
E|---------------------------------------------------------------------------------

E|-------------------------7-7-7------------
B|--3p2----------------5/8------10-8p7-8/10~
G|-----4p2----------------------------------
D|--------4/5--7/9~9/5----------------------
A|------------------------------------------
E|------------------------------------------

Bm                                 A
Nao quero mais ficar pensando em você
                                E
Eu tenho muito medo, medo de sofrer
                                      G
Você me olha de um jeito que eu passo mal

Bm                                 A
To viajando a horas em sua fotografia
                                   E
A noite ta passando amanhecendo o dia
                                       G
Por isso estou dizendo isso não vai rolar

D                                  A
To te lembrando tanto você nem imagina
                                           Em
Já comecei a te escrever em meus versos e rimas
                       G                  A
Por isso eu to caindo fora antes de apaixonar

D                                  A
Se eu me entregar eu vou chorar depois
                                         Em
Ha muito tempo eu não me apego a um novo amor
                           Bm
O envolvimento vem com o tempo
                  A    G A D
E o tempo pode machucar

D                                   A
Se eu me entregar eu vou morrer de amor
                                         Em
Eu me imagino te perdendo amanhã ou depois
                       Bm                    A
Sei muito bem o quanto dói um amor forte acabar
                   Bm
É melhor pra nois dois
00:00 / 00:00
Otros videos de esta canción
Repetir
Otros videos de esta canción
Composición de Rafael / Euler Coelho
Colaboración y revisión:
  • Lucasmmorais
  • Augusto Val
  • Edilson Dibah
129 vistas
    • ½ Tono
    • A
    • Bb
    • B
    • C
    • Db
    • D
    • Eb
    • E
    • F
    • F#
    • G
    • Ab
  • Agregar a la lista

    0 comentarios

    Ver todos los comentarios
    00:00 / 00:00
    OK