Cifra Club

Sinceramente

Kleo Dibah e Rafael

Cifrado: Principal (guitarra y guitarra eléctrica)
tono: Eb (con acordes en la forma de C) Capotraste en 3ª casa
       Am                       F                    C                            G
E|---------------------------------------------------------------------------------------------------------|
B|-3-4-3-4-3-4-3-4-4-4-4-4-8-8-8-8-4-4-4-4-3-4--6-8-6-8-6-8-6-8-8-8-8-8-13-13-13-13-13-11-11-11-11-8-8/-11-|
G|-3-5-3-5-3-5-3-5-5-5-5-5-8-8-8-8-5-5-5-5-3-5--8-8-8-8-8-8-8-8-8-8-8-8-12-12-12-12-12-10-10-10-10-9-9/-10-|
D|---------------------------------------------------------------------------------------------------------|
A|---------------------------------------------------------------------------------------------------------|
E|---------------------------------------------------------------------------------------------------------|

E|------|
B|------|
G|-8p7-5|
D|------|
A|------|
E|------|

 Am
Viajo dentro dos seus olhos
               C
Vejo um lindo sonho a me seduzir
   E
Eu não conheço seus segredos
              F
Tenho tanto medo de me iludir
 Am
Será que é mesmo outra chance?
            C
Será que o céu agora vai me ouvir?
      E
Meu pensamento é tão distante
          F
Sua maquiagem esta manchada em mim.

Dm                   Em F
Será que é isso mesmo
  F                       C
Não vou perder a calma flor
              G
Não, não vou... E|-9-8-6-8-4-|
Dm                     Em F
Não sei se é muito cedo
  F                         G
Mas eu tenho que dizer amor...

C                         G
Sinceramente eu quero estar
                    Dm
Aonde o vento me levar
        Em
Sinceramente eu vou
       F
Pra longe eu vou
      G
Pra onde você for

C                        G
Sinceramente eu quero estar
                     Dm
Aonde o tempo me deixar
        Em
Sinceramente eu vou
       F
Pra longe eu vou
      G
Pra onde está o amor...

(Solo)

Dm                   Em F
Será que é isso mesmo
                         C
Não vou perder a calma flor
              G
Não, não vou... E|-9-8-6-8-4-|
Dm                    Em F
Não sei se é muito cedo
                           G
Mas eu tenho que dizer amor...

C                         G
Sinceramente eu quero estar
                    Dm
Aonde o vento me levar
        Em
Sinceramente eu vou
       F
Pra longe eu vou
      G
Pra onde você for

C                        G
Sinceramente eu quero estar
                   Dm
Aonde o tempo me deixar
        Em
Sinceramente eu vou
       F
Pra longe eu vou
      G
Pra onde está o amor...

C                         G
Sinceramente eu quero estar
                    Dm
Aonde o vento me levar
        Em
Sinceramente eu vou
       F
Pra longe eu vou
      G
Pra onde você for...
      C             F
E|-------------------|
B|-8-8-8-8-4-4-4/6-6-|
G|-------------------|
D|-------------------|
A|-------------------|
E|-------------------|

       G
Pra onde está o amor...
      C            F     G
E|--------------------------------|
B|-8-8-8-8-6-6---8-9-6------------|
G|----------------------8-7-5-7-8-|
D|--------------------------------|
A|--------------------------------|
E|--------------------------------|
00:00 / 00:00
Otros videos de esta canción
Repetir
Otros videos de esta canción
Compositor no encontrado.
Colaboración y revisión:
  • maicon faccioni
  • Matheus
  • Bruno Vinicius
93 vistas
    • ½ Tono
    • A
    • Bb
    • B
    • C
    • Db
    • D
    • Eb
    • E
    • F
    • F#
    • G
    • Ab
  • Agregar a la lista

    0 comentarios

    Ver todos los comentarios
    00:00 / 00:00
    OK