Cifra Club

Are You Gonna Go My Way?

Lenny Kravitz

Cifrado: Principal (guitarra y guitarra eléctrica)
tono: A
Introdução:

Riff Principal:

(Guitarra 1)
E|-------------------------------------3-------------
B|-------------------------------------3-------------
G|-2b4r2p0-------------2b4r2p0-----------------------
D|---------2---0-2~------------2---0-2---------------
A|---------------------------------------------------
E|-----------0-------0-----------0-------------------

(Guitarra 2)
E|---------------------------------------------------
B|---------------------------------------------------
G|-b16r14p12--------------b16r14p12------------------
D|-----------14-x-12-14~------------14-x-12-14~------
A|---------------------------------------------------
E|---------------------------------------------------


Primeira Parte:
(Variação do Riff Principal)
E|---------------------------------------------------
B|---------------------------------------------------
G|-2b4r2p0-------------------------------------------
D|---------2---0-2~----------------------------------
A|---------------------------------------------------
E|-----------0------0--------------------------------


I was born long ago
I am the chosen I'm the one
I have come to save the day
And I won't leave until I'm done
(Guitarra 1)
E|---------------------------------------------------
B|---------------------------------------------------
G|5b7r5p3------------5b7r5p3------------5b7r5p3------
D|--------5---3-5~-----------5---3-5~-------------3-5
A|---------------------------------------------------
E|----------3------3-----------3------3---------3----

(Guitarra 2)
E|---------------------------------------------------
B|---------------------------------------------------
G|b19r17p15-------------b19r17p15-------------b19r17p
D|----------17-x-15-17~-----------17-x-15-17~--------
A|---------------------------------------------------
E|---------------------------------------------------

E|---------------------------------------------------
B|---------------------------------------------------
G|-15------------------------------------------------
D|----17-x-15-17~------------------------------------
A|---------------------------------------------------
E|---------------------------------------------------


So that's why you've got to try
You got to breath and have some fun
(Guitarra 1)
E|---------------------------------------------------
B|---------------------------------------------------
G|---5---4---3---2---4-------------------------------
D|---5---4---3---2---4-------------------------------
A|---------------------------------------------------
E|-3---3---3---3---3---------------------------------

(Guitarra 2)
E|---------------------------------------------------
B|---------------------------------------------------
G|-14-17---16---15---14---16-------------------------
D|-14-17-x-16-x-15-x-14-x-16-------------------------
A|---------------------------------------------------
E|---------------------------------------------------


(Variação 1 do Riff Principal)

Though I'm not paid I play this game
And I won't stop until I'm done

Refrão:
E|-0--0-0---0--0-0-----------------------------------
B|-3--3-3---2--2-2----9-9-9-9-7/9---9-9-9-9-12\9-----
G|-4--4-4---2--2-2----9-9-9-9-7/9---9-9-9-9-12\9-----
D|--------------------9-9-9-9-7/9---9-9-9-9-12\9-----
A|---------------------------------------------------
E|---------------------------------------------------


(But what I really want to know is)
Are you gonna go my way?
E|-0---0---0-----------------------------------------
B|-3---3---2-----------------------------------------
G|-4---4---2-----------------------------------------
D|---------------------------------------------------
A|---------------------------------------------------
E|---------------------------------------------------


And I got to got to know

(Introdução)

Segunda Parte:

(Variação do Riff Principal)
I don' tknow why we always cry
This we must leave and get undone
We must engage and rearrange
And turn this planet back to one
(Guitarra 1)
E|---------------------------------------------------
B|---------------------------------------------------
G|5b7r5p3------------5b7r5p3------------5b7r5p3------
D|--------5---3-5~-----------5---3-5~-------------3-5
A|---------------------------------------------------
E|----------3------3-----------3------3---------3----

(Guitarra 2)
E|---------------------------------------------------
B|---------------------------------------------------
G|b19r17p15-------------b19r17p15-------------b19r17p
D|----------17-x-15-17~-----------17-x-15-17~--------
A|---------------------------------------------------
E|---------------------------------------------------

E|---------------------------------------------------
B|---------------------------------------------------
G|-15------------------------------------------------
D|----17-x-15-17~------------------------------------
A|---------------------------------------------------
E|---------------------------------------------------


So tell me why we got to die
And kill each other one by one
(Guitarra 1)
E|---------------------------------------------------
B|---------------------------------------------------
G|---5---4---3---2---4-------------------------------
D|---5---4---3---2---4-------------------------------
A|---------------------------------------------------
E|-3---3---3---3---3---------------------------------

(Guitarra 2)
E|---------------------------------------------------
B|---------------------------------------------------
G|-14-17---16---15---14---16-------------------------
D|-14-17-x-16-x-15-x-14-x-16-------------------------
A|---------------------------------------------------
E|---------------------------------------------------


we've got to love and rub-a-dub
We've got to dance and be in love

Refrão:

(But what I really want to know is)
Are you gonna go my way?
And I got to got to know
Base do Solo:

E|---------------------------------------------------
B|-9--------7-----------7-----------5--7--5/---------
G|-9--------7-----------7-----------6--7--6/---------
D|-9--x--x--7--x--x--x--7--x--x--x--7--7--7/---------
A|---------------------------------------------------
E|---------------------------------------------------

E|---------------------------------------------------
B|-9--------7-----------7----------------------------
G|-9--------7-----------7----------------------------
D|-9--x--x--7--x--x--x--7----------------------------
A|---------------------------------------------------
E|---------------------------------------------------

Solo:

(Parte 1)
E|---------------------------------------------------
B|---------------------------------------------------
G|----------12h14-12b~~------------------------------
D|-12h14~~---------------14p12----12-14~~------------
A|-----------------------------14--------------------
E|---------------------------------------------------

E|---------------------------------------------------
B|---------------------------------------------------
G|---------------------------------------------------
D|-----------------------------------------------9---
A|-\12~--12-10~--10---------10--------------4/11-----
E|------------------12~--12----12~~--12--------------

(Parte 2)
E|---------------------------------------------------
B|----------------------------------------------12h14
G|-----------------9--b13r11p9----9h11p9~-11/13------
D|-11p9----9-10h11-------------11--------------------
A|------11-------------------------------------------
E|---------------------------------------------------

E|-12-----------12---------12----15p12---------------
B|----12-15b17~----15b17~~-15b17--------15b17~~------
G|---------------------------------------------------
D|---------------------------------------------------
A|---------------------------------------------------
E|---------------------------------------------------

E|-12-15-17b19--17b19--17b19--17b19--17b19r17-15-----
B|-----------------------------------------------17--
G|---------------------------------------------------
D|---------------------------------------------------
A|---------------------------------------------------
E|---------------------------------------------------

(Parte 3)
E|---------------------------------------------------
B|-17~~-17b20---17b20--17b20--17b20--17b20--17b20----
G|---------------------------------------------------
D|---------------------------------------------------
A|---------------------------------------------------
E|---------------------------------------------------

E|---------------------------------------------------
B|-17b20r17-15----15~-17-----------------------------
G|-------------16---------16\14p12----12h14p12----12-
D|---------------------------------14----------14----
A|---------------------------------------------------
E|---------------------------------------------------

E|----------12----------12----------------12---------
B|-------12----12-15b17----15-12-------12----12-15b17
G|-14b16-------------------------14b16---------------
D|---------------------------------------------------
A|---------------------------------------------------
E|---------------------------------------------------

E|-12----------------12----------12----12------------
B|----15-12-------12----12-15b17----12---------------
G|----------14b16------------------------------------
D|---------------------------------------------------
A|---------------------------------------------------
E|---------------------------------------------------

(Parte 4)
E|-------12-------12-------12-------12-15p12----12---
B|15b17-----15b17----15b17----15b17----------15----15
G|---------------------------------------------------
D|---------------------------------------------------
A|---------------------------------------------------
E|---------------------------------------------------

E|---------------------------------------------------
B|-12----15p12----12---------------------------------
G|----14-------14----14-14b16r14----12-14-12~~-------
D|-------------------------------14------------------
A|---------------------------------------------------
E|---------------------------------------------------

Riff - Final do Solo:

E|---------------------------------------------------
B|---------------------------------------------------
G|---------------------------------------------------
D|-0---0---0-----------------------------------------
A|---4---5---7\--------------------------------------
E|---------------------------------------------------


(Introdução)

Último Refrão:

E|-0----0--0----0------------------------------------
B|-3----2--3----2--9-9-9-9-7/9---9-9-9-9-12\9--------
G|-4----2--4----2--9-9-9-9-7/9---9-9-9-9-12\9--------
D|-----------------9-9-9-9-7/9---9-9-9-9-12\9--------
A|---------------------------------------------------
E|---------------------------------------------------

Are you gonna go my way?
E|-0---0--------------------------------------------
B|-3---2--------------------------------------------
G|-4---2--------------------------------------------
D|--------------------------------------------------
A|--------------------------------------------------
E|--------------------------------------------------


'Cause baby I got to know
00:00 / 00:00
Otros videos de esta canción
Repetir
Otros videos de esta canción
Composición de Craig Ross / Lenny Kravitz
13.147 exhibiciones
    • ½ Tono
    • A
    • Bb
    • B
    • C
    • Db
    • D
    • Eb
    • E
    • F
    • F#
    • G
    • Ab
  • Agregar a la lista
    00:00 / 00:00
    Capítulos
    • Início
    • Tocando a música
    • Configuração do Efeito
    • Tocando Introdução
    • Ensinando Riff Principal - Guitarra 1
    • Ensinando Riff Principal - Guitarra 2
    • Tocando Primeira Parte
    • Ensinando Variação do Riff Principal
    • Ensinando Primeira Parte (Continuação)
    • Tocando Refrão
    • Ensinando Refrão
    • Tocando Solo
    • Ensinando Solo - Parte 1
    • Ensinando Solo - Parte 2
    • Ensinando Solo - Parte 3
    • Ensinando Solo - Parte 4
    • Tocando Solo (Lento)
    • Ensinando Base do Solo
    • Tocando Final
    • Ensinando Refrão Final
    • Encerramento
    OK