Cifra Club

Historia de un amor

Los Angeles Negros

Cifrado: Principal (guitarra y guitarra eléctrica)
tono: Em
Intro:

E|-------------------|
B|-----1-------------|
G|---2---2-----------|
D|-2-------2-0h2-0-5-|
A|-------------------|
E|-------------------|

E|----------------------------|
B|----------------------------|
G|----------------------------|
D|-2-5-4-3-2--2-3-4-3-5-4-3-2-|
A|----------------------------|
E|----------------------------|

E|----------------------------------|
B|----------------------------------|
G|------------------2-1--0-1-4-2--2-|
D|-2-2-3-4-5-3--3-3-----------------|
A|----------------------------------|
E|----------------------------------|

E|------------------------------5-|
B|---------------------3----------|
G|-2-2-4-2-5-4-5-4-5-4---1-4-2----|
D|--------------------------------|
A|--------------------------------|
E|--------------------------------|

Solo:

E|-0--------------------------------|
B|---3-1---4-3-4--------------------|
G|-------2-------5-4-2--------------|
D|---------------------5------------|
A|----------------------------------|
E|----------------------------------|

E|-----15-13--13-12-10--------------13-12-|
B|---8-----------------12--12-13-15-------|
G|-9--------------------------------------|
D|----------------------------------------|
A|----------------------------------------|
E|----------------------------------------|

E|-12-10------10-8-8-7-5-7-5-|
B|-------8-12----------------|
G|---------------------------|
D|---------------------------|
A|---------------------------|
E|---------------------------|
00:00 / 00:00
Otros videos de esta canción
Repetir
Otros videos de esta canción
Compositor no encontrado.
18 vistas
    • ½ Tono
    • Am
    • Bbm
    • Bm
    • Cm
    • C#m
    • Dm
    • Ebm
    • Em
    • Fm
    • F#m
    • Gm
    • G#m
  • Agregar a la lista

    0 comentarios

    Ver todos los comentarios

    ¿Lograste tocar?

    0 Tocaron 0 Aún no

    ¡Graba un video tocando Historia de un amor y envíanoslo!

    00:00 / 00:00
    OK