Cifra Club

Cancer

My Chemical Romance

Tab de bajo: Principal
Já pensou em usar uma coleção de roupas do Cifra Club? Responda as perguntas abaixo e nos ajude nessa missão! →
0.37
G|------3-34-45-56~-14-14-14-14-14--------4-44-4-|
D|-15/7----------------------------4-44-4--------|
A|-----------------------------------------------|
E|-----------------------------------------------|

G|---------------------------------------|
D|2-22------2-25-9--910-11~-11-9-7-7-5-3-|
A|---------------------------------------|
E|---------------------------------------|

G|--------------------------------------|
D|2-25-9-9-8-12-10-11~-11-9-7/9/15/17---|
A|--------------------------------------|
E|--------------------------------------|

G|---------------------------------------------------|
D|7-7-77-7-9-9-910-1010-10-11-1111-11-11-19-19-19-19-|
A|---------------------------------------------------|
E|---------------------------------------------------|

G|-----------6666664422---|
D|2222222222-----------66-|
A|------------------------|
E|------------------------|

G|-----------------------------|
D|44444444---------------------|
A|---------22222222-6-65-52-21-|
E|-----------------------------|

G|---------44444444------------|
D|44444444----------2----------|
A|-----------------------------|
E|-----------------------------|
Composición de My Chemical Romance
70 vistas

0 comentarios

Ver todos los comentarios

¿Lograste tocar?

0 Tocaron 0 Aún no

¡Graba un video tocando Cancer y envíanoslo!

00:00 / 00:00
Outros vídeos desta música
Repetir Calidad Automático
Outros vídeos desta música
00:00 / 00:00
Automático
OK