Cifra Club

Cancer

My Chemical Romance

Tab de bajo: Versão 4
Já pensou em usar uma coleção de roupas do Cifra Club? Responda as perguntas abaixo e nos ajude nessa missão! →
Tabbed By : StealhostWizen aka WizenWolf Bane
e-mail:

This is a beautiful song and its a pleasure to tab it.
Thanks

Tuning:E
       A
       D
       G


Bass comes in about quarter way through...
G|------------------------------------------------------------------------14-|
D|----------------------------------------14\7---8---9---10---11-------------|
A|---------------------------------------------------------------------------|
E|---------------------------------------------------------------------------|

G|-14\---------------4-------------------------------------------------------|
D|------4----4--4------------------------------------------------------------|
A|----------------------------------7-------------7-7------------------------|
E|---------------------------------------------------------------------------|

G|---------------------------------------------------------------------------|
D|------------9-----9--10--11------------11-10-9-8-7-------7/9---------------|
A|--7------------------------------------------------------------------------|
E|---------------------------------------------------------------------------|

G|-------------------------------------------------------9--12--14--16---------|
D|------------9-----9-8-9-10-11/14\11----11-10-9-8-7---------------------------|
A|--7----7/9-------------------------------------------------------------------|
E|-----------------------------------------------------------------------------|

G|---------------------------------------------------------------------------|
D|-7----8----9----10----11----11-/19~----------------------------------------|
A|---------------------------------------------------------------------------|
E|---------------------------------------------------------------------------|

G|---------------------------------------------------------------------------|
D|---------------------------11--11--11--11--11---9--------------------------|
A|--7--7--7--7--7--7--7--7----------------------------12---11---9--9--9--9---|
E|---------------------------------------------------------------------------|

G|---------------------------------------------------------------------------|
D|----------------------------------------------------4----------------------|
A|--2--2--2--2---4--4-3-3-2-2------------------------------2--2--2--2---7----|
E|----------------------------2--2--2--2--2--2--2--2----2--------------------|

This is pretty much completely right. Its just the timing that you may have to figure 
yourself but its pretty srraight forward. Play this song with
conviction and it will come out excellent.


| /  slide up
| \  slide down
| h  hammer-on
| p  pull-off
| ~  vibrato
| +  harmonic
| x  Mute note
===============================================================================
Composición de My Chemical Romance

0 comentarios

Ver todos los comentarios

¿Lograste tocar?

0 Tocaron 0 Aún no

¡Graba un video tocando Cancer y envíanoslo!

00:00 / 00:00
Outros vídeos desta música
Repetir Calidad Automático
Outros vídeos desta música
00:00 / 00:00
Automático
OK