Cifra Club

Cancer

My Chemical Romance

Tab de bajo: Versão 2
Já pensou em usar uma coleção de roupas do Cifra Club? Responda as perguntas abaixo e nos ajude nessa missão! →
Tabbed By : Andeh2006
e-mail: *

There Is Really No Bass Cause All Piano But Here Is Some Bass If You Wanted To Play It 
Bass. This Is My First Tab Please Comment Any Corrections.


Tuning:starard

Intro
G|---------------------------------------------------------------------------|
D|---------------------------------------------------------------------------|
A|-7-7-7-7-7-7-7-7-----------------7-7-7-7-7-7-7-7---------------------------|
E|-----------------7-7-7-7-7-7-7-7------------------7-7-7-7-7-7-7-7----------|

Verse 1 - Play Twice
G|-----------------------------------------------------------------------------|
D|-----------------------------------------------------------------------------|
A|-----------------2-2-2-2-2-2-2-2--4-4-4-4-4-4-320-0-0-0-0-0-0-0-0------------|
E|-0-0-0-0-0-0-0-0-------------------------------------------------------------|

Chorus
G|---------------------------------------------------------------------------|
D|---------------------------------------------------------------------------|
A|-0-0-0-0---------2-2-2-2-3-3-3-3-4-4-4-4-4-4-4-4---------------------------|
E|---------2-2-2-2----------------------------------5-5-5-5-5-5-5------------|

G|---------------------------------------------------------------------------|
D|---------------------------------------------------------------------------|
A|-----------------2-2-2-2-2-2-2-2/--7-7-7-7-7-7-7-7-7-7-7-7-7-7-7-7---------|
E|-2-2-2-2-2-2-2-2-----------------------------------------------------------|

Verse 2- Play Once
G|-----------------------------------------------------------------------------|
D|-----------------------------------------------------------------------------|
A|-7-7-7-7-7-7-7-7--2-2-2-2-2-2-2-2--4-4-4-4-4-4-320-0-0-0-0-0-0-0-0-----------|
E|-----------------------------------------------------------------------------|

G|-----------------------------------------------------------------------------|
D|-----------------------------------------------------------------------------|
A|-----------------2-2-2-2-2-2-2-2--4-4-4-4-4-4-320-0-0-0-0-0-0-0-0------------|
E|-0-0-0-0-0-0-0-0-------------------------------------------------------------|

Chorus
G|---------------------------------------------------------------------------|
D|---------------------------------------------------------------------------|
A|-0-0-0-0---------2-2-2-2-3-3-3-3-4-4-4-4-4-4-4-4---------------------------|
E|---------2-2-2-2----------------------------------5-5-5-5-5-5-5------------|

Bridge

G|---------------------------------------------------------------------------|
D|---------------------------------------------------------------------------|
A|-7-7-7-7-7-7-7-7------------------4-4-4-4-4-4-4-4-2-2-2--------------------|
E|------------------8-8-8-8-8-8-8-8------------------------5-5-5-4-4-4-4-4---|

G|---------------------------------------------------------------------------|
D|---------------------------------------------------------------------------|
A|-----------------2-2-2-2-2-2-2-2-4-4-4-4-4-3-3-3-3-3-2-2-2-2-2-0-0-0-0-0---|
E|-2-2-2-2-2-2-2-2-----------------------------------------------------------|

G|---------------------------------------------------------------------------|
D|---------------------------------------------------------------------------|
A|-----------------2-2-2-2-2-2-2-2-------------------------------------------|
E|-2-2-2-2-2-2-2-2------------------0----------------------------------------|
Composición de My Chemical Romance
1 vistas

0 comentarios

Ver todos los comentarios

¿Lograste tocar?

0 Tocaron 0 Aún no

¡Graba un video tocando Cancer y envíanoslo!

00:00 / 00:00
Outros vídeos desta música
Repetir Calidad Automático
Outros vídeos desta música
00:00 / 00:00
Automático
OK