Cifra Club

Jigsaw Falling Into Place

Radiohead

Tablatura: Principal (guitarra)
reproducciones 2.787
Tono: D
Intro 2x: Bm  Bbm  Bbm  Dmaj7  D6  Gmaj7  Dmaj7/F#  D/F# 
E|---------------------------|      |--------|      |-------------------------|
B|---------------------------|      |--------|      |-------------------------|
G|-7--6--6-6--4--6-7--4--6-7-|      |-10-7---|      |-7-6/7-4/2---9-7-6/7-4/2-|
D|-9--8--7-8--0--0-0--0--0-0-| (2x) |-12-9/7-| (2x) |-5-4/5-2-----7-5-4/5-2---|
A|-0--0--0-0--0--0-0--0--0-0-|      |--0-0---|      |-0-0---0-----0-0-0---0---|
D|-9--8--0-0--5--5-4--5--5-4-|      |-12-9---|      |-5-4/5-2-----7-5-4/5-2---|

Bm
Just as you take my hand
Just as you write my number down
Just as the drinks arrive
Just as they play your favourite song
G               F#m            G
As your bad day disappears
F#m       Em    F#m Em D A
No longer wound up like a spring
A             G
Before you've had too much
E5             F#5 E5 D
Come back in focus again

Bm
The walls are bending shape
You've got a cheshire cat grin
All blurring into one
This place is on a mission
G          F#m        G
Before the night owl
F#m        Em F#m Em D
Before the animal noises
A              G
Closed circuit cameras
E5          F#5 E5 D
Before you comatose

( B5  D/B )

Bm
Before you run away from me
Before you're lost between the notes
The beat goes round and round (2x)
G              F#m        G
I never really got there
F#m        Em F#m Em D A
I just pretended that I had
A               G
Words are blunt instruments
E5             F#5  E5  D
Words are sawn off shotguns

Bm
Come on and let it out (4x)
G               F#m          G
Before you run away from me
F#m          Em  F#m  Em D  A
Before your lost between the notes
A           G
Just as you take the mic
E5             F#5  E5  D
Just as you dance, dance, dance

Solo: Bm  Bm  Bm  Bm
      Bbm  Bbm  Dmaj7  D6
      Gmaj7  Dmaj7/F#   D/F#  Gmaj7  Dmaj7/F#   D/F#
E|----------------------|
B|------------7--10--12-|
G|-4-4/6-7-9------------|  (4x)
D|------------4--7---9--|
A|-2-2/4-5-7------------|
D|----------------------|

Bm
A Jigsaw falling into place
So there is nothing to explain
Bbm
You eye each other as you pass
Dmaj7              D6
She looks back and you look back
Gmaj7   Dmaj7/F#  D/F#
Not just once
Gmaj7         Dmaj7/F#  D/F#
and not just twice
Bm
Wish away your nightmare
Wish away the nightmare
            Bbm
You got the light you can feel it on your back
    Dmaj7                  D6
[A light,] you can feel it on your back
Gmaj7         Dmaj7/F#  D/F#
Your jigsaw falling
Gmaj7  Dmaj7/F#  D/F#
into place

( Bm )
Acordes para:
    Compositor: Radiohead Colaboración y revision:
    • Rodrigo Resende
    • Sid Ferreira

    0 comentarios

    mostrar más comentarios

    ¿Conseguiste tocar?

    6 tocaron 0 aún no

    ¡Graba un vídeo tocando Jigsaw Falling Into Place y envianoslo!

    00:00 / 00:00
    outros vídeos desta música
    repetir qualidade Automático
    Outros vídeos desta música
    00:00 / 00:00
    Automático
    OK