Cifra Club

El gato que esta triste y azul

Roberto Carlos

Cifrado: Principal (guitarra y guitarra eléctrica)
Selo Cifra Club: esta cifra foi revisada para atender aos critérios oficiais da nossa Equipe de Qualidade.
tono: Eb
repeat          repeat
E|---------------|---------------|
B|-------4-------|---------------|
G|-----3---3---3-|-------7-------|
D|---5-------5---|-----8---8---8-|
A|-6-------------|---8-------8---|
E|---------------|-6-------------|

Cuando era un chiquillo que alegr�  jugando a la guerra noche y d�  saltando la verja
   repeat          repeat                            repeat         repeat
E|---------------|---------------|---------------|---------------|---------------|
B|-------4-------|---------------|---------------|-------8-------|-------8-------|
G|-----3---3---3-|-------7-------|-------7-------|-----8---8---8-|-----6---6---6-|
D|---5-------5---|-----8---8---8-|-----6---6---6-|---8-------8---|---8-------8---|
A|-6-------------|---8-------8---|---8-------8---|-6-------------|-6-------------|
E|---------------|-6-------------|-6-------------|---------------|---------------|


verte a t� as�          en tus ojos algo nuevo descubr퍊
:-----------------|---------------|-------3-------|--------1h3p1-----|
:--------9--------|-------9-------|-----4---4---4-|------3-------4-3-|
:------8---8---8--|-----8---8---8-|---0-------0---|----3-------------|
:----6-------6----|---9-------9---|-1-------------|--3---------------|
:-/6--------------|-6-------------|---------------|1-----------------|
:-----------------|---------------|---------------|------------------|

Las rosas dec� que eras m�      y un gato me hac�compa��   desde que me dejaste
E|---------------|---------------|---------------|---------------|---------------|
B|-------4-------|---------------|---------------|-------8-------|-------8-------|
G|-----3---3---3-|-------7-------|-------7-------|-----8---8---8-|-----6---6---6-|
D|---5-------5---|-----8---8---8-|-----6---6---6-|---8-------8---|---8-------8---|
A|-6-------------|---8-------8---|---8-------8---|-6-------------|-6-------------|
E|---------------|-6-------------|-6-------------|---------------|---------------|

 ya no s頰or qu頠  la ventana es mas grande sin tu amor
:-----------------|---------------|-------3-------|--------1h3p1-----|
:--------9--------|-------9-------|-----4---4---4-|------3-------4-3-|
:------8---8---8--|-----8---8---8-|---0-------0---|----3-------------|
:----6-------6----|---9-------9---|-1-------------|--3---------------|
:-/6--------------|-6-------------|---------------|1-----------------|
:-----------------|---------------|---------------|------------------|

           El gato que estፊe:---------------|
B|-------4-------|
G|-----3---3---3-|
D|---5-------5---|
A|-6-------------|
E|---------------|

   en nuestro cielo      no va a volver a casa si no est᳍
E|--3-3-3-3-3-3-3-3--3-3-3-3-3--4-4-4-4-4--6-6-6-6-6-|
B|--3-3-3-3-3-3-3-3--4-4-4-4-4--6-6-6-6-6--3-3-3-3-3-|
G|--3-3-3-3-3-3-3-3--5-5-5-5-5--5-5-5-5-5--3-3-3-3-3-|
D|--5-5-5-5-5-5-5-5--5-5-5-5-5--3-3-3-3-3--3-3-3-3-3-|
A|--5-5-5-5-5-5-5-5--3-3-3-3-3--3-3-3-3-3--3-3-3-3-3-|
E|--3-3-3-3-3-3-3-3--3-3-3-3-3-------------6-6-6-6-6-|

    no sabes mi amor que noche bella  presiento que t?᳠en esa estrella
E|--4-4-4-4-4--4-4-4-4-4--6-6-6-6-6------------|
B|--6-6-6-6-6--4-4-4-4-4--3-3-3-3-3--4-4-4-4-4-|
G|--5-5-5-5-5--5-5-5-5-5--3-3-3-3-3--3-3-3-3-3-|
D|--3-3-3-3-3--6-6-6-6-6--3-3-3-3-3--5-5-5-5-5-|
A|--3-3-3-3-3--6-6-6-6-6--3-3-3-3-3--6-6-6-6-6-|
E|-------------4-4-4-4-4--6-6-6-6-6------------|

    El gato que esta triste y azul     nunca se olvida que
E|--3-3-3-3-3-3-3-3--3-3-3-3-3--4-4-4-4-4------------|
B|--3-3-3-3-3-3-3-3--4-4-4-4-4--4-4-4-4-4--4-4-4-4-4-|
G|--3-3-3-3-3-3-3-3--5-5-5-5-5--5-5-5-5-5--3-3-3-3-3-|
D|--5-5-5-5-5-5-5-5--5-5-5-5-5--6-6-6-6-6--5-5-5-5-5-|
A|--5-5-5-5-5-5-5-5--3-3-3-3-3--6-6-6-6-6--6-6-6-6-6-|
E|--3-3-3-3-3-3-3-3--3-3-3-3-3--4-4-4-4-4------------|

fuiste m�    m᳠se que sabr᳠de mi sufrir
E|--3-3-3-3-3-3-3-3--3-3-3-3-3--4-4-4-4-4--6-6-6-6-6-|
B|--3-3-3-3-3-3-3-3--4-4-4-4-4--4-4-4-4-4--3-3-3-3-3-|
G|--3-3-3-3-3-3-3-3--5-5-5-5-5--5-5-5-5-5--3-3-3-3-3-|
D|--5-5-5-5-5-5-5-5--5-5-5-5-5--6-6-6-6-6--3-3-3-3-3-|
A|--5-5-5-5-5-5-5-5--3-3-3-3-3--6-6-6-6-6--3-3-3-3-3-|
E|--3-3-3-3-3-3-3-3--3-3-3-3-3--4-4-4-4-4--6-6-6-6-6-|

porque en mis ojos            una l᧲ima hay
E|--------------6-6-6-6-6-6-|
B|---4-4-4-4-4--3-3-3-3-3-3-|
G|---3-3-3-3-3--3-3-3-3-3-3-|
D|---5-5-5-5-5--3-3-3-3-3-3-|
A|---6-6-6-6-6--3-3-3-3-3-3-|
E|--------------6-6-6-6-6-6-|

E|---------------|---------------|---------------|---------------|---------------|
B|-------4-------|---------------|---------------|-------8-------|-------8-------|
G|-----3---3---3-|-------7-------|-------7-------|-----8---8---8-|-----6---6---6-|
D|---5-------5---|-----8---8---8-|-----6---6---6-|---8-------8---|---8-------8---|
A|-6-------------|---8-------8---|---8-------8---|-6-------------|-6-------------|
E|---------------|-6-------------|-6-------------|---------------|---------------|

  Querida querida, vida m�
E|--------------6-6-6-6-6-6-|
B|---4-4-4-4-4--3-3-3-3-3-3-|
G|---3-3-3-3-3--3-3-3-3-3-3-|
D|---5-5-5-5-5--3-3-3-3-3-3-|
A|---6-6-6-6-6--3-3-3-3-3-3-|
E|--------------6-6-6-6-6-6-|

   reflejo de luna que re�
E|----4-4-4-4-4--3-3-3-3-3-|
B|----6-6-6-6-6--4-4-4-4-4-|
G|----5-5-5-5-5--5-5-5-5-5-|
D|----3-3-3-3-3--5-5-5-5-5-|
A|----3-3-3-3-3--3-3-3-3-3-|
E|---------------3-3-3-3-3-|

  si amar es errado, culpa m� te am鍊e:--6-6-6-6-6-6--4-4-4-4-4-4--4-4-4-4-4-4-|
B|--3-3-3-3-3-3--4-4-4-4-4-4--4-4-4-4-4-4-|
G|--3-3-3-3-3-3--5-5-5-5-5-5--4-4-4-4-4-4-|
D|--3-3-3-3-3-3--6-6-6-6-6-6--6-6-6-6-6-6-|
A|--3-3-3-3-3-3--6-6-6-6-6-6--6-6-6-6-6-6-|
E|--6-6-6-6-6-6--4-4-4-4-4-4--4-4-4-4-4-4-|

en el fondo que es la vida,
E|-3-3-3-3-3-3--6-6-6-6-6-6-|
B|-4-4-4-4-4-4--3-3-3-3-3-3-|
G|-5-5-5-5-5-5--3-3-3-3-3-3-|
D|-5-5-5-5-5-5--3-3-3-3-3-3-|
A|-3-3-3-3-3-3--3-3-3-3-3-3-|
E|-3-3-3-3-3-3--6-6-6-6-6-6-|

  no lo s鮍
E|-------------|
B|---4-4-4-4-4-|
G|---3-3-3-3-3-|
D|---5-5-5-5-5-|
A|---6-6-6-6-6-|
00:00 / 00:00
Otros videos de esta canción
Repetir
Otros videos de esta canción
5.033 exhibiciones
    • ½ Tono
    • A
    • Bb
    • B
    • C
    • Db
    • D
    • Eb
    • E
    • F
    • F#
    • G
    • Ab
  • Agregar a la lista

Afinación de cifrado

Afinador online

    00:00 / 00:00
    OK