Cifra Club

(I Can't Get No) Satisfaction

The Rolling Stones

Chords: Principal (acoustic and electric guitars)
tone: A
[Intro]

Riff Intro
E|----------------------------------------------------|
B|----------------------------------------------------|
G|----------------------------------------------------|
D|----------------------------------------------------|
A|-2--2---2-4-5---5--5p4--4p2-------------------------|
E|----------------------------------------------------|

[Primeira Parte]

Frase 1
E|--------------|
B|--------------|
G|--------------|
D|--------------|
A|-----7--------|
E|-7h9---9------|

Frase 2
E|--------------|
B|--------------|
G|--------------|
D|--------------|
A|-----7--------|
E|-7h9---9-7----|

Frase 2 (Variação)
E|--------------|
B|--------------|
G|--------------|
D|--------------|
A|-----7---7----|
E|-7h9---9------|

Frase 3
E|----------------------|
B|----------------------|
G|----------------------|
D|----------------------|
A|-------7-7h9p7---7----|
E|-7-7-9---------9------|

Frase 4
E|----------------------|
B|----------------------|
G|----------------------|
D|----------------------|
A|-------7-7h9p7---7----|
E|-5-5-9---------9------|

E7                frase 1  A              frase 1
   I can't get no             satisfaction
E7                frase 2  A              frase 2
   I can't get no             satisfaction
           E7         frase 3    E7        frase 4
'Cause I try  and I try  and I try and I try

[Refrão]

Riff Intro
E|----------------------------------------------------|
B|----------------------------------------------------|
G|----------------------------------------------------|
D|----------------------------------------------------|
A|-2--2---2-4-5---5--5p4--4p2-------------------------|
E|----------------------------------------------------|

I can't get no
I can't get no
When I'm drivin' in my car
And that man comes on the radio
He's tellin' me more and more
About some useless information
Supposed to fire my imagination
I can't get no, oh, no, no, no

(Riff Intro)
Hey, hey, hey, that's what I say

[Primeira Parte]

E                frase 1  A              frase 1
  I can't get no            satisfaction
E                frase 2  A              frase 2
  I can't get no            satisfaction
           E          frase 3    E         frase 4
'Cause I try  and I try  and I try and I try

[Refrão]

Riff Intro
E|----------------------------------------------------|
B|----------------------------------------------------|
G|----------------------------------------------------|
D|----------------------------------------------------|
A|-2--2---2-4-5---5--5p4--4p2-------------------------|
E|----------------------------------------------------|

I can't get no
I can't get no
When I'm watchin' my TV
And that man comes on to tell me
How white my shirts can be
But he can't be a man 'cause he doesn't smoke
The same cigarettes as me
I can't get no, oh, no, no, no

(Riff Intro)
Hey, hey, hey, that's what I say

[Primeira Parte]

E7                frase 1  A              frase 1
   I can't get no             satisfaction
E7                frase 2  A              frase 2
   I can't get no             satisfaction
           E7         frase 3    E7        frase 4
'Cause I try  and I try  and I try and I try

[Refrão]

Riff Intro
E|----------------------------------------------------|
B|----------------------------------------------------|
G|----------------------------------------------------|
D|----------------------------------------------------|
A|-2--2---2-4-5---5--5p4--4p2-------------------------|
E|----------------------------------------------------|

I can't get no
I can't get no
When I'm ridin' round the world
And I'm doin' this and I'm signing that
And I'm tryin' to make some girl
Who tells me baby better
Come back later next week
'Cause you see I'm on losing streak
I can't get no, oh, no, no, no

(Riff Intro)
Hey, hey, hey, that's what I say
I can't get no, I can't get no
I can't get no satisfaction
No satisfaction, no satisfaction, no satisfaction
I can't get no
00:00 / 00:00
Other videos of this song
Repeat
Other videos of this song
64.792 views
  • Simplify chords
    • ½ Tone
    • A
    • Bb
    • B
    • C
    • Db
    • D
    • Eb
    • E
    • F
    • F#
    • G
    • Ab
  • Add to list

Afinação da cifra

Afinador online

    00:00 / 00:00
    Chapters
    • Início
    • Tocando a música
    • Configuração do Efeito
    • Acordes da música
    • Tocando Introdução
    • Ensinando Riff da Introdução
    • Tocando Primeira Parte
    • Ensinando Primeira Parte
    • Tocando Refrão e Repetições
    • Ensinando Repetições
    • Ensinando Final
    OK